» » »

Clutch - A Quick Death In Texas Tabs

Artists:  A B C D E F G H I J K L M N O P Q R S T U V W X Y Z # 

A Quick Death In Texas Tabs

(ver. 1) Click to play this song!
Clutch
 Rating:
2.5/5 (25 votes)

 A Quick Death In Texas  lessons Tabs too difficult? Try these video lessons and learn fast
 
                VERSE RIFF                                 
|--------------------|--------------------|
|--------------------|--------------------|  
|--------------------|--------------------| 
|---------2--0---0-2-|---------2--0---0-2-|  
|--------------2-----|--------------2-----|  
|-0---0-3------------|-0---0-3------------|

RIFF VARIATION (played during second verse)
|--------------------|--------------------|
|--------------------|--------------------|  
|--------------------|--------------------| 
|-------5-2--0---0-2-|-------5-2--0---0-2-|  
|--------------2-----|--------------2-----|  
|-0---0--------------|-0---0--------------|

LEAD FILL (clean guitar)
|-----12----------------|
|--15-12----------------|
|--14------14\----------|
|-----------------------|
|-----------------------|
|-----------------------|

PRE-CHORUS
|-----------------|-----------------|
|-----------------|-----------------|
|-----------------|-----------------|
|-----------------|-----------------|
|-----------------|-----------------|
|-5-5-5-5-5-5-5-5-|-5-5-5-5-5-3-3-3-|

CHORUS
|----------------------|--------------------------------|
|----------------------|--------------------------------|
|----------------------|--------------------------------|
|-------------5-5------|---------------5-5--------------|
|---7-5-7-7-7-----7----|-----7-5-7-7-7-----7------------|
|-0------------------0-|-(0)-----------------7-5-3-0----|

|-------------------------|------------------------------|
|-------------------------|------------------------------|
|-------------------------|------------------------------|
|-------------5-5-------5-|-(5)--------------------------|
|---7-5-7-7-7-----7-(7)---|-----7-5-7-5---5--------------|
|-0-----------------------|-------------7---7-5-7-5-3----|

LEAD FILL AFTER CHORUS (clean guitar)
|-----------------------|
|-15--------------------|
|-----14b14.5p12--------|
|------------------14---|
|-----------------------|
|-----------------------|

RIFF AFTER CHORUS (with octave effect)
|--------------||-----------------|-------------------------------||
|--------------||o----------------|------------------------------o||
|--------------||-----------------|-------------------------------||
|----------0-2-||--(2)--------2---|-2-0-------------------0-2-----||
|--------2-----||o------0-1-2-----|-----2-1-0-2---------2--------o||
|--------------||-----------------|--------------3-0--------------||

FINAL SECTION
|----------------------|---------------------------------|
|----------------------|---------------------------------|
|----------------------|---------------------------------|
|-------------5-5------|---------------5-5----7b8r7-5----|
|---7-5-7-7-7-----7----|-----7-5-7-7-7-----7----------7--|
|-0------------------0-|-(0)-----------------------------|            
Submit corrections


        A Quick Death In Texas  lessons Hard to play? Try these video lessons and learn fast A Quick Death In Texas  lessons
        
↑ Back to top | Tablatures and chords for acoustic guitar and electric guitar, ukulele, drums are parodies/interpretations of the original songs. You may use it for private study, scholarship, research or language learning purposes only