» » »

Clutch - 10000 Witnesses Tabs

Artists:  A B C D E F G H I J K L M N O P Q R S T U V W X Y Z # 

10000 Witnesses Tabs

(ver. 1) Click to play this song!
Clutch
 Rating:
4.4/5 (11 votes)

 10000 Witnesses lessons Tabs too difficult? Try these video lessons and learn fast
 
                [Intro]
   (with wah)
e|------------------------------------------------5-5p3-5p3-5--|
B|-------------------------------------------------------------|
G|--2-2p0-2p0-2----2-2p0-2p0-2----2-2p0-2p0-2------------------|
D|-------------------------------------------------------------|
A|-------------------------------------------------------------|
E|-------------------------------------------------------------|


[Verse]
   (with wah)
e|------------------------------------------------5-5p3-5p3-5--|
B|-------------------------------------------------------------|
G|--2-2p0-2p0-2----2-2p0-2p0-2----2-2p0-2p0-2------------------|
D|-------------------------------------------------------------|
A|-------------------------------------------------------------|
E|-------------------------------------------------------------|

e|----------------------------------------------------------------------------------------------|
B|----------------------------------------------------------------------------------------------|
G|----------------------------------------------------------------------------------------------|
D|----------------------------------------------------------------------------------------------|  
A|--3b-5b-3-5--------------3b-5b-3-5--------------3b-5b-3-5--------------3b-5b-3-5--------------|
E|------------5-5-3-5-3-5------------5-5-3-5-3-5------------5-5-3-5-3-5------------5-5-3-5-3-5--|
              x x x x x x            x x x x x x            x x x x x x            x x x x x x


[Chorus 1]

e|-----------------------------------------------|
B|-----------------------------------------------|
G|-----------------------------------------------|
D|--5------------------------5-------------------|  
A|--5----3---------3---------5----3---------3----|
E|--3------5--3--5---5-3-5---3------5--3--5---5--|

e|-----------------------------------------------|
B|-----------------------------------------------|
G|-----------------------------------------------|
D|--5------------------------2-------------------|
A|--5----3---------3---------2----3---------3----|
E|--3------5--3--5---5-3-5---0------5--3--5---5--|


[Chorus 2]

e|----------|
B|----------|
G|--5--5-2--|
D|--5--5-2--|  16x
A|--3--3-0--|
E|----------|


[Chorus 1]

e|-----------------------------------------------|
B|-----------------------------------------------|
G|-----------------------------------------------|
D|--5------------------------5-------------------|  
A|--5----3---------3---------5----3---------3----|
E|--3------5--3--5---5-3-5---3------5--3--5---5--|

e|-----------------------------------------------|
B|-----------------------------------------------|
G|-----------------------------------------------|
D|--5------------------------2-------------------|
A|--5----3---------3---------2----3---------3----|
E|--3------5--3--5---5-3-5---0------5--3--5---5--|


[Solo - RYTHEM GUITAR]
e|-----------------------------------------------|
B|-----------------------------------------------|
G|-----------------------------------------------|
D|--5------------------------5-------------------|  
A|--5----3---------3---------5----3---------3----|
E|--3------5--3--5---5-3-5---3------5--3--5---5--|

e|-----------------------------------------------|
B|-----------------------------------------------|
G|-----------------------------------------------|
D|--5------------------------2-------------------|
A|--5----3---------3---------2----3---------3----|
E|--3------5--3--5---5-3-5---0------5--3--5---5--|


[Verse]
   (with wah)
e|--5-5p3-5p3-5------------------------------------------------------------|
B|-------------------------------------------------------------------------|
G|---------------2-2p0-2p0-2----2-2p0-2p0-2----2-2p0-2p0-2----2-2p0-2p0-2--|
D|-------------------------------------------------------------------------|
A|-------------------------------------------------------------------------|
E|-------------------------------------------------------------------------|


[Chorus 2]

e|----------|
B|----------|
G|--5--5-2--|
D|--5--5-2--|  16x
A|--3--3-0--|
E|----------|


[Chorus 1]

e|-----------------------------------------------|
B|-----------------------------------------------|
G|-----------------------------------------------|
D|--5------------------------5-------------------|  
A|--5----3---------3---------5----3---------3----|
E|--3------5--3--5---5-3-5---3------5--3--5---5--|

e|-----------------------------------------------|
B|-----------------------------------------------|
G|-----------------------------------------------|
D|--5------------------------2-------------------|
A|--5----3---------3---------2----3---------3----|
E|--3------5--3--5---5-3-5---0------5--3--5---5--|

e|-----------------------------------------------|
B|-----------------------------------------------|
G|-----------------------------------------------|
D|--5------------------------5-------------------|  
A|--5----3---------3---------5----3---------3----|
E|--3------5--3--5---5-3-5---3------5--3--5---5--|

e|-----------------------------------------------|
B|-----------------------------------------------|
G|-----------------------------------------------|
D|--5------------------------2-------------------|
A|--5----3---------3---------2----3---------3----|
E|--3------5--3--5---5-3-5---0------5--3--5---5--|


[Ending]

e|-------------------------------------|
B|-------------------------------------|
G|-------------------------------------|
D|-------------------------------------|
A|--3-------3---3-------3---3-----3----|
E|----5-3-5---5---5-3-5---5---5-5---5--|

            
Submit corrections


        10000 Witnesses lessons Hard to play? Try these video lessons and learn fast 10000 Witnesses lessons
        
↑ Back to top | Tablatures and chords for acoustic guitar and electric guitar, ukulele, drums are parodies/interpretations of the original songs. You may use it for private study, scholarship, research or language learning purposes only