Home » C » Clueso »

Clueso - Gewinner Tabs

Artists:  A B C D E F G H I J K L M N O P Q R S T U V W X Y Z # 

Gewinner Tabs

(ver. 2) Click to play this song!
Clueso
Clueso - Gewinner

So Spiele ich das Lied. 

Verse:

   Am                      F
e|-----------------------|------------------------------|
B|------------5----------|-------------10---------------|
G|------5-------5--------|------10---------10-----------|
D|---7------------7----7-|---10----------------10----10-|
A|------------------7----|-8-------8--------------8-----|
E|-5-------5-------------|------------------------------|

   C                            C*
e|----------------------------|----------------------------|
B|----------------------------|----------------------------|
G|-------------9--------------|-------------9--------------|
D|------10-------10-----------|------10-------10-----------|
A|---10-------------10----10--|---10-------------10----10--|
E|-8--------8----------8------|-7--------7----------7------|

Chorus: Am, F, C, C* (hier nur die akkorde spielen)

am                      F                                   C  C*            
An allem, was man sagt, an allem, was man sagt ist auch was dran
Egal, wer kommt, egal, wer geht, egal, es kommt nicht darauf an
Ich komm vorbei, du kommst vorbei, kommt wer vorbei, sind wir nicht da
Leichter als leicht geht es vielleicht, leichter als das, was vielleicht war
Ich denk an dich, denkst du an mich, denkst du an dich, wo fängt es an?
Bist du bereit, es ist bereits vorbei, viel später als man kann
Ich glaube nichts, ich glaub an dich, glaubst du an mich, ich glaub ich auch
Ich frage mich, ich frage dich, doch frag ich nicht: „Fragst du dich auch?“

am                            F                       C           C*
Ich bin dabei, du bist dabei, wir sind dabei, uns zu verlieren
Ich bin dabei, bist du dabei, bin ich dabei, uns zu verlieren?
Ich bin dabei, du bist dabei, wir sind dabei, uns zu verlieren
Ich bin dabei, bist du dabei, bin ich dabei, uns zu verlieren?

Leichter als leicht geht es vielleicht, leichter als das, was vielleicht war
Leichter als leicht, es ist nicht weit von hier zu dem, was noch nicht war
Suchst du mich, dann such ich dich, ist die Versuchung groß genug
Ich lass es zu, komm, lass es zu, komm, lass es uns noch einmal tun
Ich geb nicht auf, gehst du mit mir, gehst du mit mir mit auf uns zu?
Fällt dir nichts ein? Komm, leg nicht auf, komm, reg dich auf und komm zur Ruh

Ich bin dabei, du bist dabei, wir sind dabei, uns zu verlieren
Ich bin dabei, bist du dabei, bin ich dabei, uns zu verlieren?
Ich bin dabei, du bist dabei, wir sind dabei, uns zu verlieren
Ich bin dabei, bist du dabei, bin ich dabei, uns zu verlieren?
Ich bin dabei, du bist dabei, wir sind dabei, uns zu verlieren 
            
Submit corrections

↑ Back to top | Tablatures and chords for acoustic guitar and electric guitar, ukulele, drums are parodies/interpretations of the original songs. You may use it for private study, scholarship, research or language learning purposes only