» » »

Clay Walker - I Can't Sleep Tabs

Artists:  A B C D E F G H I J K L M N O P Q R S T U V W X Y Z # 

I Can't Sleep Tabs

(ver. 2) Click to play this song!
Clay Walker
 Rating:
4/5 (4 votes)

 I Can't Sleep lessons Tabs too difficult? Try these video lessons and learn fast
 
                "(2)
Here is a more correct version of the intro for Clay 
Walker's, I Can't Sleep.




e ---------------------------------------------------------
b --------/10------8-------8---------------------10--------
g ----7h9-/11--9\7-9--11-9-7--------------7h9-/11--11------
d -7h9-----------------------7h9-------7h9----------------- 
a ---------------------------------------------------------
e ---------------------------------------------------------


e ---------------------------------------------------------
b --------------------10-10-10-----------------------------
g --7-9--11-7-----9/11--------9\7---7----------------------
d --------------------------------9------------------------
a ---------------------------------------------------------
e ---------------------------------------------------------
"            
Submit corrections


        I Can't Sleep lessons Hard to play? Try these video lessons and learn fast I Can't Sleep lessons
        
↑ Back to top | Tablatures and chords for acoustic guitar and electric guitar, ukulele, drums are parodies/interpretations of the original songs. You may use it for private study, scholarship, research or language learning purposes only