» » »

Clay Walker - I Can't Sleep Tabs

Artists:  A B C D E F G H I J K L M N O P Q R S T U V W X Y Z # 

I Can't Sleep Tabs

(ver. 1) Click to play this song!
Clay Walker
 Rating:
4/5 (4 votes)

 I Can't Sleep lessons Tabs too difficult? Try these video lessons and learn fast
 
                |--------------------------------------|  
|----------7-----7------------7-10-7---|
|------7h9--9p7-9-7-------7h9--------7-|
|--7h9-------------7--7h9--------------|
|--------------------------------------|
|--------------------------------------|

|--------------------------------------|
|---7------10-10-10-10s8---------------|
|-9----------------------7-9-7---------|
|-----9-7------------------------------|
|--------------------------------------|
|--------------------------------------|

This isn't perfect but it's as close as I 
could get.  Feel free to comment, unless
your going to tell me it sucks.  Cause 
that hurts, lol.  I also did this on an acoustic
and I'm pretty sure the beginning of Clay's 
song is an electric guitar.  
            
Submit corrections


        I Can't Sleep lessons Hard to play? Try these video lessons and learn fast I Can't Sleep lessons
        
↑ Back to top | Tablatures and chords for acoustic guitar and electric guitar, ukulele, drums are parodies/interpretations of the original songs. You may use it for private study, scholarship, research or language learning purposes only