» » »

City High - Caramel Tabs

Artists:  A B C D E F G H I J K L M N O P Q R S T U V W X Y Z # 

Caramel Tabs

(ver. 1) Click to play this song!
City High
 Rating:
4.2/5 (5 votes)

 Caramel lessons Tabs too difficult? Try these video lessons and learn fast
 
                

Tabbing rap kicks Ass! hehehe

-----9-----9-----9-----9-----9-9-9------4-3----3-3---3h4p3--------------------
-8-8---8-8---8-8---8-8---8-8-------8--6------------6-------4-3-3h4p3----------
---------------------------------------------------------------------5--------
------------------------------------------------------------------------------
------------------------------------------------------------------------------
------------------------------------------------------------------------------
                                                                              

------------------------------------------------------------------------------
---3-4-3---3-4-3---3/4-3------------------------------------------------------
-5-------5-------5-------5----------------------------------------------------
------------------------------------------------------------------------------
------------------------------------------------------------------------------
------------------------------------------------------------------------------
                                                                              
            
Submit corrections


        Caramel lessons Hard to play? Try these video lessons and learn fast Caramel lessons
        
↑ Back to top | Tablatures and chords for acoustic guitar and electric guitar, ukulele, drums are parodies/interpretations of the original songs. You may use it for private study, scholarship, research or language learning purposes only