» » »

Circa Waves - Fossils Tabs

Artists:  A B C D E F G H I J K L M N O P Q R S T U V W X Y Z # 

Fossils Tabs

(ver. 2) Click to play this song!
Circa Waves
 Rating:
2.2/5 (30 votes)

 Fossils  lessons Tabs too difficult? Try these video lessons and learn fast
 
                Intro

Guitar 1:
e|------------------------------------------------------------------------------------|
B|------------------------------------------------------------------------------------|
G|-9-7-9------7--9-7-9------7--9-7-9------7--9-7-9------7--9-7-9------7--9-7-9---10-9-|
D|---------10------------10------------10------------10------------10-----------------|
A|------------------------------------------------------------------------------------|
E|------------------------------------------------------------------------------------|
 |
 | Guitar 2:
e|-----------------------------8--8--X-8---8--X-X------10-10-X-8---8--X-X-10-10-X-7-7-X-X-|
B|-----------------------------8--8--X-8---8--X-X------10-10-X-8---8--X-X-10-10-X-8-8-X-X-|
G|-----------------------------9--9--X-9---9--X-X------10-10-X-9---9--X-X-10-10-X-9-9-X-X-|
D|-----------------------------10-10-X-10--10-X-X------12-12-X-10--10-X-X-12-12-X-9-9-X-X-|
A|-----------------------------10-10-X-10--10-X-X------12-12-X-10--10-X-X-12-12-X-7-7-X-X-|
E|-----------------------------8--8--X-8---8--X-X-(x2)-10-10-X-8---8--X-X-10-10-X-X-X-X-X-| *play twice



Verse

*Guitar 2 plays intro chords four times

Never lose my sight 
Circumstances change I'll an-

Guitar 1:
e|----------------------------|
B|----------------------------|
G|-9-7-9------7--9-7-9---10-9-|
D|---------10-----------------|
A|----------------------------|
E|----------------------------|

-other place to hide           
Digging holes in fields
Telling me the truth I need the

Guitar 1:
e|----------------------------|
B|----------------------------|
G|-9-7-9------7--9-7-9--------|
D|---------10-----------------|
A|----------------------------|
E|----------------------------|

Fossils to be real



Chorus

Guitar 1:
e|----------------------------10--10--10--10--12--12--12--12--13--13--12--12-|
B|-10-13-10-13-10-13-10-13-10---10--10--10--10--10--10--10--10--10--10--10---|
G|---------------------------------------------------------------------------|
D|---------------------------------------------------------------------------|
A|---------------------------------------------------------------------------|
E|---------------------------------------------------------------------------| 
 |
 | Guitar 2:
e|-8--------10-------12-------12-------|
B|-10-------10-------13-------11-------|
G|-9--------10-------14-------10-------|
D|-10-------12-------14-------12-------|
A|-8--(x16)-12-------12-(x16)-10-(x16)-|
E|-X--------10-(x16)-X--------X--------|

*Play both parts twice

The one day I want something I just can't get
I'm a long way from home
I'm a long way from home
The one day I want something I just can't get
I'm a long way from home
I'm a long way from home

Guitar 2:
e|-8--8--X-8---8--X-X------10-10-X-8---8--X-X-10-10-X-7-|
B|-8--8--X-8---8--X-X------10-10-X-8---8--X-X-10-10-X-8-|
G|-9--9--X-9---9--X-X------10-10-X-9---9--X-X-10-10-X-9-|
D|-10-10-X-10--10-X-X------12-12-X-10--10-X-X-12-12-X-9-|
A|-10-10-X-10--10-X-X------12-12-X-10--10-X-X-12-12-X-7-|
E|-8--8--X-8---8--X-X-(x2)-10-10-X-8---8--X-X-10-10-X-X-|



Verse 2

*Guitar 2 plays intro chords four times

Taken back by me
Believing nothing feels like such a

Guitar 1:
e|----------------------------|
B|----------------------------|
G|-9-7-9------7--9-7-9---10-9-|
D|---------10-----------------|
A|----------------------------|
E|----------------------------|

Hollow way to be

Guitar 1: (Palm muted)
e|---------------------------------|
B|---------------------------------|
G|-9-9-9-9-9-9-9-9-9-9-9-9-9-9-9-9-|
D|---------------------------------|
A|---------------------------------|
E|---------------------------------|

I can try to hide

Guitar 1: (Palm muted)
e|---------------------------------|
B|---------------------------------|
G|-7-7-7-7-7-7-7-7-7-7-7-7-7-7-7-7-|
D|---------------------------------|
A|---------------------------------|
E|---------------------------------|

Everything I stand for but I

Guitar 1: (Palm muted)
e|---------------------------------|
B|---------------------------------|
G|-9-9-9-9-9-9-9-9-9-9-9-9-9-9-9-9-|
D|---------------------------------|
A|---------------------------------|
E|---------------------------------|

Feel it on the side

Guitar 1:
e|---------------------------------------------------------|
B|------------------------------------------------------8--|
G|-7-7-7-7-7-7-7-7-9-9-9-9-10-10-10-10-9--7-9------7--9--9-|
D|----------------------------------------------10---------|
A|---------------------------------------------------------|
E|---------------------------------------------------------|



Chorus

Guitar 1:
e|---------------------------10--10--10--10--12--12--12--12--13--13--12--12-|
B|-10-13-10-13-10-13-10-13-10--10--10--10--10--10--10--10--10--10--10--10---|
G|--------------------------------------------------------------------------|
D|--------------------------------------------------------------------------|
A|--------------------------------------------------------------------------|
E|--------------------------------------------------------------------------| 
 |
 | Guitar 2:
e|-8--------10-------12-------12-------|
B|-10-------10-------13-------11-------|
G|-9--------10-------14-------10-------|
D|-10-------12-------14-------12-------|
A|-8--(x16)-12-------12-(x16)-10-(x16)-|
E|-X--------10-(x16)-X--------X--------|

*Play both parts twice

The one day I want something I just can't get
I'm a long way from home
I'm a long way from home
The one day I want something I just can't get
I'm a long way from home
I'm a long way from home



Instrumental

Guitar 1:
e|-3--1--------------3--1--------------3--1--------------3--1--0--0--|
B|-------5-5-5b6-----------5-5-5b6-3---------5-5-5b6-----------------|
G|---------------2-----------------------------------2---------------|
D|-------------------------------------------------------------------|
A|-------------------------------------------------------------------|
E|-------------------------------------------------------------------|
 |
 | Guitar 2:
e|-8--8--X-8---8--X-X------10-10-X-8---8--X-X-10-10-X-7-7-X-X-|
B|-8--8--X-8---8--X-X------10-10-X-8---8--X-X-10-10-X-8-8-X-X-|
G|-9--9--X-9---9--X-X------10-10-X-9---9--X-X-10-10-X-9-9-X-X-|
D|-10-10-X-10--10-X-X------12-12-X-10--10-X-X-12-12-X-9-9-X-X-|
A|-10-10-X-10--10-X-X------12-12-X-10--10-X-X-12-12-X-7-7-X-X-|
E|-8--8--X-8---8--X-X-(x2)-10-10-X-8---8--X-X-10-10-X-X-X-X-X-| *play twice


Guitar 1:
e|-----------------------------------------15--15--15--15--13--13--13--13-----------------|
B|---15--15--15--15--13--13--13--13-(x2)-----------------------------------15--15--15--15-|
G|-14--14--14--14--14--14--14--14--------14--14--14--14--14--14--14--14--14--14--14--14---|
D|----------------------------------------------------------------------------------------|
A|----------------------------------------------------------------------------------------|
E|----------------------------------------------------------------------------------------|
 |
 | Guitar 2:
e|----------------------------------8------------------------------------8--|
B|----------------------------------8------------------------------------8--|
G|----------------------------------9------------------------------------9--|
D|----------------------------------10-----------------------------------10-|
A|----------------------------------10-----------------------------------10-|
E|----------------------------------8------------------------------------8--|



Chorus

Guitar 1:
e|---------------------------10--10--10--10--12--12--12--12--13--13--12--12-|
B|-10-13-10-13-10-13-10-13-10--10--10--10--10--10--10--10--10--10--10--10---|
G|--------------------------------------------------------------------------|
D|--------------------------------------------------------------------------|
A|--------------------------------------------------------------------------|
E|--------------------------------------------------------------------------| 
 |
 | Guitar 2:
e|-8--------10-------12-------12-------|
B|-10-------10-------13-------11-------|
G|-9--------10-------14-------10-------|
D|-10-------12-------14-------12-------|
A|-8--(x16)-12-------12-(x16)-10-(x16)-|
E|-X--------10-(x16)-X--------X--------|            
Submit corrections


        Fossils  lessons Hard to play? Try these video lessons and learn fast Fossils  lessons
        
↑ Back to top | Tablatures and chords for acoustic guitar and electric guitar, ukulele, drums are parodies/interpretations of the original songs. You may use it for private study, scholarship, research or language learning purposes only