» » »

Circa Waves - Fossils Tabs

Artists:  A B C D E F G H I J K L M N O P Q R S T U V W X Y Z # 

Fossils Tabs

(ver. 1) Click to play this song!
Circa Waves
 Rating:
2.7/5 (29 votes)

 Fossils  lessons Tabs too difficult? Try these video lessons and learn fast
 
                
e--8---8------8--8--------10--10---8---8----10--10---12-12----|
B--8---8------8--8--------10--10---8---8----10--10---12-12----|
G--9---9------9--9----x2--10--10---9---8----10--10---12-12----|
D--10--10-----10-10-------12--12---10--10---12--12---14-14----|
A--10--10-----10-10-------12--12---10--10---12--12---14-14----|
E--8---8------8--8--------10--10---8---8----10--10---12-12----|

   C   C      C  C        Dm  Dm   C   C    Dm  Dm   Em Em

-Lead-

This is also the main lead verse riff.

e----------- ------    ---------------|
B----------- ------    ---------------|
G----9-7-9-- ----7- x6 ---10-9--------|
D----------- -10---    ---------------|
A----------- ------    ---------------|
E----------- ------    ---------------|

---Chorus---

-Rhythm-

Youll have to listen to the song for the strumming pattern.

Although im sure of the chords themselves, I think Circa Waves actually play them in 
different ways.
Playing this still sounds good though.

e-x-x--x-x--8----5----12----10----|
B-x-x--x-x--10---6----13----11----|
G-x-x--x-x--9----7----14----10----|
D-x-x--x-x--10---7----14----12----|
A-x-x--x-x--8----5----12----10----|
E-x-x--x-x------------------------|
           FM7  Dm    Am    Gm7

Looking at the live videos of this song, it looks like kieran (Rhythm guitarist) plays
something that looks like this -x--  Instead of Dm. Its up to you if you prefer it that way.
                               -10-
                               -9--
                               -10-
                               -10-  (played with index finger)
                               -x--


-Lead-

The timing of these is hard to represent in tab but its fairly easy to pick up :-)

e------------------------------------------------------------12----12----12----12----13----13----12----12--|
B-----13-----13-----13-----13-----16-----16-----16-----16--------------------------------------------------|
G--14-----14-----14-----14-----14-----14-----14-----14----14----14----14----14----14----14----14-----14----|
D----------------------------------------------------------------------------------------------------------|
A----------------------------------------------------------------------------------------------------------|
E----------------------------------------------------------------------------------------------------------|

---Verse 2---

Rhythm as normal

-Lead-

After one bar of doing nothing, play the regular verse with the 2nd ending, just one time.
Then play it again, picking very fast, palm muted, at about half speed.
I know that sounds super confusing, but it isnt when you listen to the song and play along.

Then, the rest of the band goes quiet, and you play

e----------------------------------------------------------------------|
B-----------------------8----------------------------------------------|
G-------9-7-9-----7---9---9--(whammy bar lightly down if you have one)-|
D--------------10------------------------------------------------------|
A----------------------------------------------------------------------|
E----------------------------------------------------------------------|

                           Then into the chorus.

-Solo-

e----------------------------------------------------------------------------|
B------8--6--5--5h6p5----8--6--5--5h6p5--3----8--6--5h6p5----8--6--5--5--5---|
G----------------------------------------------------------------------------|
D-------------------7------------------------------------7-------------------|
A----------------------------------------------------------------------------|
E----------------------------------------------------------------------------|
                                    Part 1

e-------------------------------------    ---13--13--13------------------------|
B----15--15--15------13--13--13--13---    -------------------15--15--15--15----|
G--15--15--15--15--15--15--15--15--15- x2 -15--15--15--15--15--15--15--15--15--| Then part 2 again,
D-------------------------------------    -------------------------------------| into the final chorus.
A-------------------------------------    -------------------------------------|
E-------------------------------------    -------------------------------------|
                 Part 2                                 Part 3

For parts 2 and 3, the rhythm guitarist only strums once in a while, and only the main C 
chord from the verse.


-SONG STRUCTURE-

Intro
Verse   x2
Chorus  x2
Verse 2 x2
Chorus  x2
Solo
Chorus  x2            
Submit corrections


        Fossils  lessons Hard to play? Try these video lessons and learn fast Fossils  lessons
        
↑ Back to top | Tablatures and chords for acoustic guitar and electric guitar, ukulele, drums are parodies/interpretations of the original songs. You may use it for private study, scholarship, research or language learning purposes only