» » »

Circa Waves - Fossils Bass

Artists:  A B C D E F G H I J K L M N O P Q R S T U V W X Y Z # 

Fossils Bass

(ver. 1) Click to play this song!
Circa Waves
 Rating:
3.6/5 (23 votes)

 Fossils  lessons Tabs too difficult? Try these video lessons and learn fast
 
                Intro/Verses/Solo
G|--------------------------------------------------------------|
D|--------------------------------------------------------------|
A|----------3-3-3-------3-3-3----5-5-5--3-3-3--5-5-5--0-0-0-----|
E|----1-1-1-------1-1-1-----------------------------------------|

Chorus

G|--------------------------------------------------------------|
D|--------------------------------------------------------------|
A|--------------------------------------------------------------|
E|-1-1-1-1-1-1-1-1-1-1-1--3-5--10-10-10-10-10-10-10-10-10-10-10-|

G|--------------------------------------------------------------|
D|--------------------------------------------------------------|
A|--------------------------------------------------------------|
E|-5-5-5-5-5-5-5-5-5-5-5--3-3-3-3-3-3-3-3-3-3-3-----------------|            
Submit corrections


        Fossils  lessons Hard to play? Try these video lessons and learn fast Fossils  lessons
        
↑ Back to top | Tablatures and chords for acoustic guitar and electric guitar, ukulele, drums are parodies/interpretations of the original songs. You may use it for private study, scholarship, research or language learning purposes only