Home » C » Chris Tomlin »

Chris Tomlin - How Great Is Our God Bass

Artists:  A B C D E F G H I J K L M N O P Q R S T U V W X Y Z # 

How Great Is Our God Bass

(ver. 2) Click to play this song!
Chris Tomlin
(Bass rests for the first verse and first chorus)

[Verse 2]
  Age to age He stands,              and time is in His hands
G|----------------|----------------|----------------|----------------|
D|----------------|----------------|----------------|----------------|
A|----------------|----------------|-~--------------|-~--------------|
E|3------5--3-3---|3------5--3-3---|0------2--0-0---|0------2--0-0---|
B|----------------|----------------|----------------|----------------|
  1 + 2 + 3 + 4 + |1 + 2 + 3 + 4 + |1 + 2 + 3 + 4 + |1 + 2 + 3 + 4 +

  Beginning and the end...          The God head,  three in one
G|----------------|----------------|----------------|----------------|
D|----------------|----------------|----------------|----------------|
A|----------------|----------------|----------------|----------------|
E|----------------|----------------|3------5--3-3---|3------5--3-3---|
B|1------3--1-1---|1------3--1-1---|----------------|----------------|
  1 + 2 + 3 + 4 + |1 + 2 + 3 + 4 + |1 + 2 + 3 + 4 + |1 + 2 + 3 + 4 +

  Father, Spirit, Son, The Lion and the Lamb      The Lion and the Lamb
G|----------------|----------------|----------------|----------------|
D|----------------|----------------|----------------|----------------|
A|----------------|----------------|----------------|----------------|
E|0------2--0-0---|0------2--0-0---|----------------|----------------|
B|----------------|----------------|1------3--1-1---|1-1-----3--1-1--|
  1 + 2 + 3 + 4 + |1 + 2 + 3 + 4 + |1 + 2 + 3 + 4 + |1 + 2 + 3 + 4 +

[Chorus]
  How great is our God              Sing with me
G|----------------|----------------|----------------|----------------|
D|----------------|----------------|----------------|----------------|
A|----------------|----------------|-~--------------|-~--------------|
E|3-3-----5--3-3--|3-3-----5--3-3--|0------2--0-0---|0------2--0-0---|
B|----------------|----------------|-~--------------|-~--------------|
  1 + 2 + 3 + 4 + |1 + 2 + 3 + 4 + |1 + 2 + 3 + 4 + |1 + 2 + 3 + 4 +

  How great 
G|----------------|----------------|----------------|
D|----------------|----------------|----------------|
A|----------------|----------------|----------------|
E|----------------|----------------|3-3-----5--3-3--|
B|1-1-----3--11---|1-1-----3--1-1--|----------------|
  1 + 2 + 3 + 4 + |1 + 2 + 3 + 4 + |1 + 2 + 3 + 4 +

(those are double digit sixteenth notes)
G|---------------------------------|
D|---------------------------------|
A|---------------------------------|
E|3---3-------3/15--15-15-15-15----|
B|---------------------------------|
  1   +   2   +   3   +   4   +

[Interlude] play twice
   Name above all names              Worthy of all praise
G|----------------|----------------|----------------|----------------|
D|----------------|----------------|----------------|----------------|
A|----------------|----------------|----------------|----------------|
E|3-3~------------|3-3---5-5---3---|0-0-0-0-0-0-0-0-|0-0---2-2-3-3-5-|
B|----------------|----------------|----------------|----------------|
  1 + 2 + 3 + 4 + |1 + 2 + 3 + 4 + |1 + 2 + 3 + 4 + |1 + 2 + 3 + 4 +

   My heart will sing               How great is our God
G|----------------|----------------|----------------|----------------|
D|----------------|----------------|----------------|----------------|
A|----------------|----------------|----------------|----------------|
E|----------------|----------------|3-3-3-3-3-3-3-3\|15-15-15-15-15-\|
B|1-1-1-1-1-1-1-1-|3-3-3-3-3-3-3-3-|----------------|----------------|
  1 + 2 + 3 + 4 + |1 + 2 + 3 + 4 + |1 + 2 + 3 + 4 + |1 + 2 + 3 + 4 +

[Chorus]
G|----------------|----------------|----------------|----------------|
D|----------------|----------------|----------------|----------------|
A|----------------|----------------|----------------|----------------|
E|3-3-3-3-3-3-3-3-|3-3-3-3-3-3-3-3-|0-0-0-0-0-0-0-0-|0-0-0-0-0-0-0-0-|
B|----------------|----------------|----------------|----------------|
  1 + 2 + 3 + 4 + |1 + 2 + 3 + 4 + |1 + 2 + 3 + 4 + |1 + 2 + 3 + 4 +

G|----------------|----------------|----------------|----------------|
D|----------------|----------------|----------------|----------------|
A|----------------|----------------|----------------|----------------|
E|----------------|----------------|3-3-3-3-3-3-3-3-|3-3-3-3-3-3-3-3-|
B|1-1-1-1-1-1-1-1-|3-3-3-3-3-3-3-3-|----------------|----------------|
  1 + 2 + 3 + 4 + |1 + 2 + 3 + 4 + |1 + 2 + 3 + 4 + |1 + 2 + 3 + 4 +

(Bass drops out)            
Submit corrections

↑ Back to top | Tablatures and chords for acoustic guitar and electric guitar, ukulele, drums are parodies/interpretations of the original songs. You may use it for private study, scholarship, research or language learning purposes only