Home » C » Chris Tomlin »

Chris Tomlin - How Great Is Our God Bass

Artists:  A B C D E F G H I J K L M N O P Q R S T U V W X Y Z # 

How Great Is Our God Bass

(ver. 1) Click to play this song!
Chris Tomlin
Bass rests for the first verse and first chorus

Verse 2
G|----------------|----------------|----------------|----------------|
D|----------------|----------------|----------------|----------------|
A|4~-----6-44-----|4~-----6-44-----|1~-----4-11-----|1~-----4-11-----|
E|----------------|----------------|----------------|----------------|
  1 + 2 + 3 + 4 + |1 + 2 + 3 + 4 + |1 + 2 + 3 + 4 + |1 + 2 + 3 + 4 +

G|----------------|----------------|----------------|----------------|
D|----------------|----------------|----------------|----------------|
A|----------------|----------------|4~-----6-44-----|4~-----6-44-----|
E|2~-----4-22-----|2~-----4-22-----|----------------|----------------|
  1 + 2 + 3 + 4 + |1 + 2 + 3 + 4 + |1 + 2 + 3 + 4 + |1 + 2 + 3 + 4 +

G|----------------|----------------|----------------|----------------|
D|----------------|----------------|----------------|----------------|
A|1~-----4-11-----|1~-----4-11-----|----------------|----------------|
E|----------------|----------------|2~-----4-22-----|2-2----4-22-----|
  1 + 2 + 3 + 4 + |1 + 2 + 3 + 4 + |1 + 2 + 3 + 4 + |1 + 2 + 3 + 4 +

Chorus
G|----------------|----------------|----------------|----------------|
D|----------------|----------------|----------------|----------------|
A|4-4----6-44-----|4-4----6-44-----|1-1----4-11-----|1-1----4-11-----|
E|----------------|----------------|----------------|----------------|
  1 + 2 + 3 + 4 + |1 + 2 + 3 + 4 + |1 + 2 + 3 + 4 + |1 + 2 + 3 + 4 +


G|----------------|----------------|----------------|
D|----------------|----------------|----------------|
A|----------------|----------------|4-4----6-44-----|
E|2-2----4-22-----|4-4----6-44-----|----------------|
  1 + 2 + 3 + 4 + |1 + 2 + 3 + 4 + |1 + 2 + 3 + 4 +

those are double digit sixteenth notes
G|---------------------------------|
D|---------------------------------|
A|4---4-------4/16--1613111311-----|
E|----------------------------1311-|
 |1   +   2   +   3   +   4   +

Interlude
G|----------------|----------------|----------------|----------------|
D|----------------|----------------|----------------|----------------|
A|----------------|4-4---6-6---4---|1-1~------------|1-1---3-3-4-4---|
E|9-9~------------|----------------|----------------|--------------4-|
  1 + 2 + 3 + 4 + |1 + 2 + 3 + 4 + |1 + 2 + 3 + 4 + |1 + 2 + 3 + 4 +

G|----------------|----------------|----------------|------------------|
D|----------------|----------------|----------------|------------------|
A|----------------|----------------|4-4-4-4-4-4-4-4/|1616161616161616\-|
E|2-2-2-2-2-2-2-2-|4-4-4-4-4-4-4-4-|----------------|------------------|
  1 + 2 + 3 + 4 + |1 + 2 + 3 + 4 + |1 + 2 + 3 + 4 + |1 + 2 + 3 + 4 +

G|----------------|----------------|----------------|----------------|
D|----------------|----------------|----------------|----------------|
A|4-4-4-4-4-4-4-4-|4-4-4-4-4-4-3-3-|1-1-1-1-1-1-1-1-|1-1-1-1-1-1-----|
E|----------------|----------------|----------------|------------4-4-|
  1 + 2 + 3 + 4 + |1 + 2 + 3 + 4 + |1 + 2 + 3 + 4 + |1 + 2 + 3 + 4 +

G|----------------|----------------|----------------|----------------|
D|----------------|----------------|----------------|------------3-3-|
A|----------------|----------------|4-4-4-4-4-4-4-4-|4-4-4-4-6-6-----|
E|2-2-2-2-2-2-2-2-|4-4-4-4-4-4-4-4-|----------------|----------------|
  1 + 2 + 3 + 4 + |1 + 2 + 3 + 4 + |1 + 2 + 3 + 4 + |1 + 2 + 3 + 4 +

Chorus
G|----------------|----------------|----------------|----------------|
D|---------33-----|----------------|----------------|----------------|
A|4-4----66-------|4-4----6644-----|1-1----1-11-----|1-1----3344-----|
E|----------------|----------------|----------------|----------------|
  1 + 2 + 3 + 4 + |1 + 2 + 3 + 4 + |1 + 2 + 3 + 4 + |1 + 2 + 3 + 4 +

G|----------------|----------------|----------------|------------------|
D|----------------|----------------|----------------|------------------|
A|----------------|----------------|4-4-4-4-4-4-4-4/|1616161616161616\-|
E|2-2-2-2-2-2-2-2-|4-4-4-4-4-4-4-4-|----------------|------------------|
  1 + 2 + 3 + 4 + |1 + 2 + 3 + 4 + |1 + 2 + 3 + 4 + |1 + 2 + 3 + 4 +

Bass drops out
            
Submit corrections

↑ Back to top | Tablatures and chords for acoustic guitar and electric guitar, ukulele, drums are parodies/interpretations of the original songs. You may use it for private study, scholarship, research or language learning purposes only