Home » C » Chris Tomlin »

Chris Tomlin - How Great Is Our God Tabs

Artists:  A B C D E F G H I J K L M N O P Q R S T U V W X Y Z # 

How Great Is Our God Tabs

(ver. 3) Click to play this song!
Chris Tomlin
[Intro]

e|---------------------------------------------------------------------------|
B|-----8---------8--------8-----------5h6p5----------------------------------|
G|-5-5----5-5-5-----5-5-5-----5--5--5----------------------------------------|
D|---------------------------------------------------------------------------|  x 4
A|---------------------------------------------------------------------------|
E|---------------------------------------------------------------------------|



[Verse]

e|---------------------------------------------------------------------------|
B|-----8---------8--------8-----------5h6p5----------------------------------|
G|-5-5----5-5-5-----5-5-5-----5--5--5----------------------------------------|
D|---------------------------------------------------------------------------|
A|---------------------------------------------------------------------------|
E|---------------------------------------------------------------------------|

repeat till chorus.

[Chorus]

e|---------------------------------------------------------------------------|
B|-----8----6----5---------------8----6----5---------------------------------|
G|-5-5----5----5---5-------5--5-----5----5-----------------------------------|
D|---------------------------------------------------------------------------|
A|---------------------------------------------------------------------------|
E|---------------------------------------------------------------------------|




[Verse]
e|---------------------------------------------------------------------------|
B|-----8---------8--------8-----------5h6p5----------------------------------|
G|-5-5----5-5-5-----5-5-5-----5--5--5----------------------------------------|
D|---------------------------------------------------------------------------|
A|---------------------------------------------------------------------------|
E|---------------------------------------------------------------------------|

switch to bridge pickup

e|---------------------------------------------------------------------------|
B|-----8---------8--------8-----------5h6p5----------------------------------|
G|-5-5----5-5-5-----5-5-5-----5--5--5----------------------------------------|
D|---------------------------------------------------------------------------|
A|---------------------------------------------------------------------------|
E|---------------------------------------------------------------------------|

[Chorus]
e|---------------------------------------------------------------------------|
B|-----8----6----5---------------8----6----5---------------------------------|
G|-5-5----5----5---5-------5--5-----5----5-----------------------------------|
D|---------------------------------------------------------------------------|
A|---------------------------------------------------------------------------|
E|---------------------------------------------------------------------------|
add drive


[Chorus]

e|---------------------------------------------------------------------------|
B|-----8----6----5---------------8----6----5---------------------------------|
G|-5-5----5----5---5-------5--5-----5----5-----------------------------------|
D|---------------------------------------------------------------------------|
A|---------------------------------------------------------------------------|
E|---------------------------------------------------------------------------|

[bridge]
use barre chords
C5-B5-Am-F5-G5-C5

1 strum each


[ Chorus ]

play the main riff but strum the 3 highest strings then an f barre chord.
e|---------------------------------------------------------------------------|
B|-----8---------8--------8-----------5h6p5----------------------------------|
G|-5-5----5-5-5-----5-5-5-----5--5--5----------------------------------------|
D|---------------------------------------------------------------------------|
A|---------------------------------------------------------------------------|
E|---------------------------------------------------------------------------|
            
Submit corrections

↑ Back to top | Tablatures and chords for acoustic guitar and electric guitar, ukulele, drums are parodies/interpretations of the original songs. You may use it for private study, scholarship, research or language learning purposes only