Home » C » Children Collide »

Children Collide - Farewell Rocketship Bass

Artists:  A B C D E F G H I J K L M N O P Q R S T U V W X Y Z # 

Farewell Rocketship Bass

(ver. 3) Click to play this song!
Children Collide
INTRO - Guitar and vocals only

VERSE 1 - "Goodbye, Goodbye, Goodbye" 

G|-------------|-------------|
D|-7-7---------|-6-6---------|
A|-------7-7---|-------4-4---|
E|-------------|-------------|	x4

G|-------------|-------------|
D|-7-7-9-------|-6-6-6-------|
A|-------7-7-9-|-------4-4-7-|
E|-------------|-------------|	x2

G|-------------|-------6-6-4-|
D|-7-7-9-------|-6-6-6-------|
A|-------7-7-9-|-------------|
E|-------------|-------------|	x1

G|-------------|-------666666|-------------|
D|-7-7-9-------|-6-6-6-------|-------------|
A|-------7-7-9-|-------------|-------------|
E|-------------|-------------|-9\----------| x1


CHORUS 1

G|-------------|-------------|-------------|-------------|
D|-------------|-------------|-------------|-------------|
A|-------------|-------------|-------------|-4-4-4-4-4-4-|
E|-5-5-5-5-5-5-|-0-0-0-0-0-0-|-4-4-4-4-4-4-|-------------| x4


VERSE 2

G|-------------|-------------|
D|-7-7-9-------|-6-6-6-------|
A|-------7-7-9-|-------4-4-7-|
E|-------------|-------------|	x2

G|-------------|-------6-6-4-|
D|-7-7-9-------|-6-6-6-------|
A|-------7-7-9-|-------------|
E|-------------|-------------|	x1


G|-------------|-------666666|-------------|
D|-7-7-9-------|-6-6-6-------|-------------|
A|-------7-7-9-|-------------|-------------|
E|-------------|-------------|-9\----------| x1

CHORUS 2

G|-------------|-------------|-------------|-------------|
D|-------------|-------------|-------------|-------------|
A|-------------|-------------|-------------|-4-4-4-4-4-7-|
E|-5-5-5-5-5-5-|-0-0-0-0-0-0-|-4-4-4-4-4-4-|-------------| x2

G|-------------|-------------|-------------|-------------|
D|-------------|-------------|-------------|-------------|
A|-------------|-------------|-------------|-4-4-4-4-4-2-|
E|-5-5-5-5-5-5-|-0-0-0-0-0-0-|-4-4-4-4-4-4-|-------------| x2


BRIDGE - "We won’t need a Doctor" 

G|-------------|-------------|-------------|-6-6-6-6-6-6-|
D|-7-7-7-7-7-7-|-------------|-6-6-6-6-6-6-|-------------|
A|-------------|-7-7-7-7-7-7-|-------------|-------------|
E|-------------|-------------|-------------|-------------| x2

G|-------------|-------------|-------------|-------------|
D|-------------|-------------|-------------|-------------|
A|-0-0-0-------|-------------|-------------|-4-4-4-4-4-4-| x2
E|-------------|-0-0-0-------|-4-4-4-------|-------------|

SOLO

G|-------------|-------------|-------------|-------------|
D|-7-7-7-7-7-9-|-------------|-------------|-------------|
A|-------------|-7-7-7-7-7-9-|-------------|-4-4-4-4-4-4-|
E|-------------|-------------|-4-4-4-4-4-4-|-------------| x2

CHORUS 3

G|-------------|-------------|-------------|-------------|
D|-------------|-------------|-------------|-------------|
A|-------------|-------------|-------------|-4-4-4-4-4-4-|
E|-5-5-5-5-5-5-|-0-0-0-0-0-0-|-4-4-4-4-4-4-|-------------| x4
            
Submit corrections

↑ Back to top | Tablatures and chords for acoustic guitar and electric guitar, ukulele, drums are parodies/interpretations of the original songs. You may use it for private study, scholarship, research or language learning purposes only