Home » C » Children Collide »

Children Collide - Farewell Rocketship Bass

Artists:  A B C D E F G H I J K L M N O P Q R S T U V W X Y Z # 

Farewell Rocketship Bass

(ver. 1) Click to play this song!
Children Collide
Tuning- G D A E



INTRO - No Bass


VERSE - Starts at "Goodbye, Goodbye, Goodbye" 
G|------------------------|
d|------------------------|   x8
a|--0--0--------------4--4|
e|--------0--0--4--4------|

Chorus

G|----------------------------------------------|
D|----------------------------------------------|
A|0-0-0-0-0-0------------------------4-4-4-4-4-4|     x4
E|-----------0-0-0-0-0-0-4-4-4-4-4-4------------|


VERSE

G|------------------------|
d|------------------------|   x4
a|--0--0--------------4--4|
e|--------0--0--4--4------|


Chorus

G|----------------------------------------------|
D|----------------------------------------------|
A|0-0-0-0-0-0------------------------4-4-4-4-4-4|     x4
E|-----------0-0-0-0-0-0-4-4-4-4-4-4------------|



"We wont need a Doctor" part - no bass



chorus riff played after - "We'll just need you and me"

G|----------------------------------------------|
D|----------------------------------------------|
A|0-0-0-0-0-0------------------------4-4-4-4-4-4|     x2
E|-----------0-0-0-0-0-0-4-4-4-4-4-4------------|



G|--------------------------------------|
D|--------------------------------------|
A|-0-0-0---------------------4-4-4-4-4-4| x2     
E|----------0-0-0----4-4-4--------------|



G|----------------------------------------------|
D|----------------------------------------------|
A|0-0-0-0-0-0------------------------4-4-4-4-4-4|     x6
E|-----------0-0-0-0-0-0-4-4-4-4-4-4------------|
            
Submit corrections

↑ Back to top | Tablatures and chords for acoustic guitar and electric guitar, ukulele, drums are parodies/interpretations of the original songs. You may use it for private study, scholarship, research or language learning purposes only