Home » C » Chic »

Chic - I Want Your Love Bass

Artists:  A B C D E F G H I J K L M N O P Q R S T U V W X Y Z # 

I Want Your Love Bass

(ver. 2) Click to play this song!
Chic
Intro

G|----------------------------------------| x4
D|----------------------------------------|
A|------------------------07655-05677-----|
E|-355-535-3535-0-011-111-------------334-|

Verse

G|-------------------| x9
D|-------------------|
A|-------------------|
E|-33455-535-355-535-|

G|-------------------0h2-|
D|-----------------------|
A|-----------------------|
E|-33455-535-355-535-----|

Chorus

G|----------------------------------------| x4
D|----------------------------------------|
A|------------------------07655-05677-----|
E|-355-535-3535-0-011-111-------------334-|

Verse 2

G|-------------------| x7
D|-------------------|
A|-------------------|
E|-33455-535-355-535-|

G|-------------------0h2-|
D|-----------------------|
A|-----------------------|
E|-33455-535-355-535-----|

Chorus 2

G|----------------------------------------| till 4:33
D|----------------------------------------|
A|------------------------07655-05677-----|
E|-355-535-3535-0-011-111-------------334-|

4:33

G|-------------------| x3
D|-------------------|
A|-------------------|
E|-33455-535-355-535-|

G|-------------------0h2-|
D|-----------------------|
A|-----------------------|
E|-33455-535-355-535-----|

Chorus 3

G|----------------------------------------| till the end of the song
D|----------------------------------------|
A|------------------------07655-05677-----|
E|-355-535-3535-0-011-111-------------334-|
            
Submit corrections

↑ Back to top | Tablatures and chords for acoustic guitar and electric guitar, ukulele, drums are parodies/interpretations of the original songs. You may use it for private study, scholarship, research or language learning purposes only