Home » C » Cavo »

Cavo - Champagne Bass

Artists:  A B C D E F G H I J K L M N O P Q R S T U V W X Y Z # 

Champagne Bass

(ver. 3) Click to play this song!
Cavo

CHAMPAGNE (ALBUM VERSION) (Bassline)





 

 

Gtr I (Eb Ab Db Gb) - 'Staff'


  Q=93
 4/4
  Gtr I
  S S S S S S S S +S  S S S S S S S   S S S S S S S S +S  S S S S S S S
|-----------------------------------|------------------------------------|
|-----------------------------------|------------------------------------|
|-----------------------------------|------------------------------------|
|-0-2-2-2-2-2-2-2-(2)-2-2-2-2-2-2-2-|-0-2-2-2-2-2-2-2-(2)-2-2-2-2-2-2-2--|


  S S S S S S S S +S  S S S S S S S   S S S S S S S S +S  S S S S S E
|---------2-----------2-----2---2-4-|---------2-----------2-----2-----|
|-2-4-4-4---4-4-4-(4)---4-4---4-----|-2-4-4-4---4-4-4-(4)---4-4---4-2-|
|-----------------------------------|---------------------------------|
|-----------------------------------|---------------------------------|


  S S S S S S S S +S  S S S S S S S   S S S S S S S S +S  S S S S S E
|---------2-----------2-----2---2-4-|---------2-----------2-----2-----|
|-2-4-4-4---4-4-4-(4)---4-4---4-----|-2-4-4-4---4-4-4-(4)---4-4---4-2-|
|-----------------------------------|---------------------------------|
|-----------------------------------|---------------------------------|


  H    +H       E E E S S +S  S E E S S   E E E S S +S  S E E E
|-------------|-------------------------|------------------------|
|-4----(4)----|-------------------------|------------------------|
|-------------|-------------------------|------------------------|
|-------------|-2-2-2-2-2-(2)-2-2-2-2-2-|-0-0-0-0-0-(0)-0-0-0-0--|


  S S S S S S S S +S  S S S S S S S   S S S S S S S S S S S S S S E
|---------2-----------2-----2---2-4-|-------------------------------|
|-2-4-4-4---4-4-4-(4)---4-4---4-----|-2-2-2-0-0-0-------------------|
|-----------------------------------|-------------4-4-4-5-5-5-7-7-5-|
|-----------------------------------|-------------------------------|


  S S S S S S S S +S  S E Q    S S S S S S S S +S  S E Q
|----------------------------|-----------------------------|
|---------7------------------|---------7-------------------|
|-7-9-9-9---9-9-9-(9)--------|-7-9-9-9---9-9-9-(9)---------|
|----------------------------|-----------------------------|


  S S S S S S S S +S  S E Q    S S S S S S S S +S  S S S S S S S
|----------------------------|-----------------------------------|
|---------7------------------|---------7-----------7-----7---7-9-|
|-7-9-9-9---9-9-9-(9)--------|-7-9-9-9---9-9-9-(9)---9-9---9-----|
|----------------------------|-----------------------------------|


  S S S S S S S S +S  S E Q    S S S S S S S S +S  S E Q
|----------------------------|-----------------------------|
|---------7------------------|---------7-------------------|
|-7-9-9-9---9-9-9-(9)--------|-7-9-9-9---9-9-9-(9)---------|
|----------------------------|-----------------------------|


  S S S S S S S S +S  S E Q    S S S S S S S S +H       Q  Q  Q  E E
|----------------------------|------------------------|--------------|
|---------7------------------|---------7--------------|--------------|
|-7-9-9-9---9-9-9-(9)--------|-7-9-9-9---9-9-9-(9)----|--------------|
|----------------------------|------------------------|-2--------0-0-|


  E E E S S +S  S E E S S   E E E S S +S  S E E E
|-------------------------|-----------------------|
|-------------------------|-----------------------|
|-------------------------|-----------------------|
|-2-2-2-2-2-(2)-2-2-2-2-2-|-0-0-0-0-0-(0)-0-0-0-0-|


  S S S S S S S S +S  S S S S S S S
|---------2-----------2-----2---2-4-|
|-2-4-4-4---4-4-4-(4)---4-4---4-----|
|-----------------------------------|
|-----------------------------------|


  S S S S S S S S S S S S S S E
|-------------------------------|
|-2-2-2-0-0-0-------------------|
|-------------4-4-4-5-5-5-7-7-5-|
|-------------------------------|


  E E E S S +S  S E E S S   E E E S S +S  S E E E
|-------------------------|------------------------|
|-------------------------|------------------------|
|-------------------------|------------------------|
|-2-2-2-2-2-(2)-2-2-2-2-2-|-0-0-0-0-0-(0)-0-0-0-0--|


  S S S S S S S S +S  S S S S S S S   S S S S S S S S S S S S S S E
|---------2-----------2-----2---2-4-|-------------------------------|
|-2-4-4-4---4-4-4-(4)---4-4---4-----|-2-2-2-0-0-0-------------------|
|-----------------------------------|-------------4-4-4-5-5-5-7-7-5-|
|-----------------------------------|-------------------------------|


  S S S S S S S S S S S S S S S S   S S S S S S S S S S S S S S S S
|---------------------------------|---------------------------------|
|---------------------------------|---------------------------------|
|---------------------------------|---------------------------------|
|-2-2-2-2-2-2-2-2-2-2-2-2-2-2-2-2-|-0-0-0-0-0-0-0-0-0-0-0-0-0-0-0-0-|


  S S S S S S S S S S S S S S S S   S S S S S S S S H
|---------------------------------|----------------------|
|---------------------------------|----------------------|
|---------------------------------|----------------------|
|-2-2-2-2-2-2-2-2-2-2-2-2-2-2-2-2-|-0-0-0-0-0-0-0-0------|


  S S S S S S S S +S  S E Q    S S S S S S S S +S  S E Q
|---------2------------------|---------2-------------------|
|-2-4-4-4---4-4-4-(4)--------|-2-4-4-4---4-4-4-(4)---------|
|----------------------------|-----------------------------|
|----------------------------|-----------------------------|


  S S S S S S S S +S  S E Q    S S S S S S S S +S  S S S S S S S
|---------2------------------|---------2-----------2-----2---2-4-|
|-2-4-4-4---4-4-4-(4)--------|-2-4-4-4---4-4-4-(4)---4-4---4-----|
|----------------------------|-----------------------------------|
|----------------------------|-----------------------------------|


  S S S S S S S S +S  S E Q    S S S S S S S S +S  S E Q
|---------2------------------|---------2-------------------|
|-2-4-4-4---4-4-4-(4)--------|-2-4-4-4---4-4-4-(4)---------|
|----------------------------|-----------------------------|
|----------------------------|-----------------------------|


  S S S S S S S S +S  S E Q    Q  Q  Q  Q    E E E S S +S  S E E S S
|---------2------------------|-------------|--------------------------|
|-2-4-4-4---4-4-4-(4)--------|-------------|--------------------------|
|----------------------------|-2--1--------|--------------------------|
|----------------------------|-------2-----|-2-2-2-2-2-(2)-2-2-2-2-2--|


  E E E S S +S  S E E E   S S S S S S S S +S  S S S S S S S
|-----------------------|---------2-----------2-----2---2-4--|
|-----------------------|-2-4-4-4---4-4-4-(4)---4-4---4------|
|-----------------------|------------------------------------|
|-0-0-0-0-0-(0)-0-0-0-0-|------------------------------------|


  S S S S S S S S S S S S S S E
|-------------------------------|
|-2-2-2-0-0-0-------------------|
|-------------4-4-4-5-5-5-7-7-5-|
|-------------------------------|


  E E E S S +S  S E E S S   E E E S S +S  S E E E
|-------------------------|------------------------|
|-------------------------|------------------------|
|-------------------------|------------------------|
|-2-2-2-2-2-(2)-2-2-2-2-2-|-0-0-0-0-0-(0)-0-0-0-0--|


  S S S S S S S S +S  S S S S S S S   S S S S S S S S S S S S S S E
|---------2-----------2-----2---2-4-|-------------------------------|
|-2-4-4-4---4-4-4-(4)---4-4---4-----|-2-2-2-0-0-0-------------------|
|-----------------------------------|-------------4-4-4-5-5-5-7-7-5-|
|-----------------------------------|-------------------------------|


  S S S S S S S S S S S S S S S S   S S S S S S S S S S S S S S S S
|---------------------------------|---------------------------------|
|---------------------------------|---------------------------------|
|---------------------------------|---------------------------------|
|-2-2-2-2-2-2-2-2-2-2-2-2-2-2-2-2-|-0-0-0-0-0-0-0-0-0-0-0-0-0-0-0-0-|


  S S S S S S S S S S S S Q    S S S S S S S S S S S S S S S S
|----------------------------|-4-4-4-4-4-4-4-4-4-4-4-4-4-4-4-4--|
|----------------------------|----------------------------------|
|-0-0-0-0-0-0-0-0-0-0-0-0-0--|----------------------------------|
|----------------------------|----------------------------------|


  W          +H     +Q   Q    W          +H     +Q   Q
|----------|----------------|----------|----------------|
|----------|----------------|----------|----------------|
|----------|----------------|----------|----------------|
|-2--------|-(2)----(2)--0--|-2--------|-(2)----(2)--0--|


  Q  Q  Q  Q    Q  Q  Q  Q    W          +H     +H
|-------------|-------------|----------|---------------|
|-------------|-------------|----------|---------------|
|-------------|-------------|----------|---------------|
|-2--2--2--2--|-2--2--2--2--|-0--------|-(0)----(0)----|


  E E E S S +S  S E E S S   E E E S S +S  S E E E
|-------------------------|-----------------------|
|-------------------------|-----------------------|
|-------------------------|-----------------------|
|-2-2-2-2-2-(2)-2-2-2-2-2-|-0-0-0-0-0-(0)-0-0-0-0-|


  S S S S S S S S +E. S S S S  S
|---------2-----------2-4-6-9-11-|
|-2-4-4-4---4-4-4-(4)------------|
|--------------------------------|
|--------------------------------|


   S  S  S  S  S  S S S S S S S S S E
|-------------------------------------|
|-------------------------------------|
|-------------------------------------|
|-12-12-12-10-10-10-9-9-9-7-7-7-5-5-0-|


  E E E S S +S  S E E S S   E E E S S +S  S E E E
|-------------------------|------------------------|
|-------------------------|------------------------|
|-------------------------|------------------------|
|-2-2-2-2-2-(2)-2-2-2-2-2-|-0-0-0-0-0-(0)-0-0-0-0--|


  S S S S S S S S +E. S S S S  S    S  S  S  S  S  S S S S  S  S  S  S  S  E
|---------2-----------2-4-6-9-11-|-------------------------------------------|
|-2-4-4-4---4-4-4-(4)------------|-------------------------------------------|
|--------------------------------|-------------------------------------------|
|--------------------------------|-12-12-12-10-10-10-9-9-9-10-10-10-12-12-10-|


  S S S S S S S S S S S S S S S S   S S S S S S S S S S S S S S S S
|---------------------------------|---------------------------------|
|---------------------------------|---------------------------------|
|---------------------------------|---------------------------------|
|-2-2-2-2-2-2-2-2-2-2-2-2-2-2-2-2-|-0-0-0-0-0-0-0-0-0-0-0-0-0-0-0-0-|


  S S S S S S S S +S  S S S S S S S
|---------2-----------2-----2---2-4-*|
|-2-4-4-4---4-4-4-(4)---4-4---4-----*|
|-----------------------------------*|
|-----------------------------------*|




--------------------------------------------------------------------------------


Duration Legend
---------------
W - whole; H - half; Q - quarter; E - 8th; S - 16th; T - 32nd; X - 64th; a - acciaccatura
+ - note tied to previous; . - note dotted; .. - note double dotted
Uncapitalized letters represent notes that are staccato (1/2 duration)
Irregular groupings are notated above the duration line
Duration letters will always appear directly above the note/fret number it represents the
duration for.  Duration letters with no fret number below them represent rests.  Multi-
bar rests are notated in the form Wxn, where n is the number of bars to rest for.  Low
melody durations appear below the staff

Tablature Legend
----------------
 h   - hammer-on
 p   - pull-off
 b   - bend
 pb  - pre-bend
 r   - bend release (if no number after the r, then release immediately)
 /\  - slide into or out of (from/to "nowhere")
 s   - legato slide
 S   - shift slide
 - natural harmonic
[n]  - artificial harmonic
n(n) - tapped harmonic
 ~   - vibrato
 tr  - trill
 T   - tap
 TP  - trem. picking
 PM  - palm muting
\n/  - tremolo bar dip; n = amount to dip
 \n  - tremolo bar down
 n/  - tremolo bar up
/n\  - tremolo bar inverted dip
 =   - hold bend; also acts as connecting device for hammers/pulls
 <> - volume swell (louder/softer)
 x   - on rhythm slash represents muted slash
 o   - on rhythm slash represents single note slash

Misc Legend
-----------
 |  - bar
||  - double bar
||o - repeat start
o|| - repeat end
*|  - double bar (ending)
 :  - bar (freetime)
 $  - Segno
 &  - Coda
Tempo markers -  = BPM(8/16=s8/s16), where s8 = swing 8ths, s16 = swing 16ths



--------------------------------------------------------------------------------
            
Submit corrections

↑ Back to top | Tablatures and chords for acoustic guitar and electric guitar, ukulele, drums are parodies/interpretations of the original songs. You may use it for private study, scholarship, research or language learning purposes only