Home » C » Cavo »

Cavo - Champagne Bass

Artists:  A B C D E F G H I J K L M N O P Q R S T U V W X Y Z # 

Champagne Bass

(ver. 1) Click to play this song!
Cavo


Tuning: Half0-Step Down

Gb|----------------------------------|
Db|----------------------------------|
Ab|----------------------------------|
Db|-24444444444444442444444444444444-|

Gb|-----2-----2--2-24------2----2---------------(2X)------------------|
Db|-2444--444--44-4---2444--444--4442---------------------------------|
Ab|-----------------------------------4--<-(second time let ring)-----|
Db|-------------------------------------------------------------------|

Gb|----------(2X)--------------------------2---2--2-24-----------------|
Db|-----------------------------------2444--444-44-4-------------------|
Ab|--------------------------------------------------------------------|
Db|-4444444444444444-2222222222222222--------------------2224440000000-|

Gb|-----2-----(3X)-------2----2---2-24---------------------------------|
Db|-2444--444-------2444--444--44--4-----------------------------------|
Ab|--------------------------------------------------------------------|
Db|--------------------------------------------------------------------|

Gb|-----2-----(3X)-----------------------------------------------------|
Db|-2444--444----------------------------------------------------------|
Ab|-----------------4~~~~----------------------------------------------|
Db|--------------------------------------------------------------------|

Gb|----------------------------------------2---2--2-24-----------------|
Db|-----------------------------------2444--444-44-4-------------------|
Ab|--------------------------------------------------------------------|
Db|-4444444444444444-2222222222222222--------------------4442220000000-|

Gb|--------------------------------------------------------------------|
Db|--------------------------------------------------------------------|
Ab|--------------------------------------------------------------------|
Db|-44444444444444442222222222222222000000000000000022222222-----------|

Gb|-----2-----(3X)-------2----2---2-24---------------------------------|
Db|-2444--444-------2444--444--44--4-----------------------------------|
Ab|--------------------------------------------------------------------|
Db|--------------------------------------------------------------------|

Gb|-----2-----(3X)-----------------------------------------------------|
Db|-2444--444----------------------------------------------------------|
Ab|----------------4~~~------------------------------------------------|
Db|--------------------------------------------------------------------|

2X
Gb|----------------------------------------2---2--2-24-----------------|
Db|-----------------------------------2444--444-44-4-------------------|
Ab|--------------------------------------------------------------------|
Db|-4444444444444444-2222222222222222--------------------4442220000000-|


Gb|--------------------------------------------------------------------|
Db|--------------------------------------------------------------------|
Ab|--------------------------------------------------------------------|
Db|-44444444444444442222222222222222000000000000000022222222-----------|

Gb|--------------------------------------------------------------------|
Db|--------------------------------------------------------------------|
Ab|--------------------------------------------------------------------|
Db|-4~~~~~~~2-4~~~~~~2-4~~~~~~2-0~~~~~---------------------------------|

2X
Gb|----------------------------------------2---2--2-24-----------------|
Db|-----------------------------------2444--444-44-4-------------------|
Ab|--------------------------------------------------------------------|
Db|-4444444444444444-2222222222222222--------------------4442220000000-|

Gb|----------------------------------------2---2--2-24-----------------|
Db|-----------------------------------2444--444-44-4-------------------|
Ab|--------------------------------------------------------------------|
Db|-4444444444444444-2222222222222222----------------------------------|

ok this was my first tab, i did it by ear and im not sure its accurate in way, im just 
the ball rolling on this song and hoping someone does a better more accurate job of 
it. any questions or
rockin
     -ONYX

| /  slide up
| \  slide down
| h  hammer-on
| p  pull-off
| ~  vibrato
| +  harmonic
| x  Mute note
===============================================================================
            
Submit corrections

↑ Back to top | Tablatures and chords for acoustic guitar and electric guitar, ukulele, drums are parodies/interpretations of the original songs. You may use it for private study, scholarship, research or language learning purposes only