» » »

Catch 22 - Keasbey Nights Tabs

Artists:  A B C D E F G H I J K L M N O P Q R S T U V W X Y Z # 

Keasbey Nights Tabs

(ver. 2) Click to play this song!
Catch 22
 Rating:
4/5 (4 votes)

 Keasbey Nights lessons Tabs too difficult? Try these video lessons and learn fast
 
                
 7---7-------11--11--9---9-------|--11--11----7---7---11--11------|
|7---7-------11--11--9---9-------|--11--11----7---7---11--11------|
|8---8-------11--11--10--10------|--11--11----8---8---11--11------|
|9---9-------11--11--11--11------|--11--11----9---9---11--11------|
|9---9-------9---9---11--11------|--9---9-----9---9---9---9-------|
|7---7-------9---9---9---9-------|--9---9-----7---7---9---9-------|

 |       |       |       |        |       |       |       |        
|9---9---11--11------------------|--------------------------------|
|9---9---11--11------------------|--------------------------------|
|9---9---11--11------------------|--------------------------------|
|9---9---11--11------------------|--------------------------------|
|7---7---9---9-------------------|--------------------------------|
|7---7---9---9-------------------|-------------------------------
            
Submit corrections


        Keasbey Nights lessons Hard to play? Try these video lessons and learn fast Keasbey Nights lessons
        
↑ Back to top | Tablatures and chords for acoustic guitar and electric guitar, ukulele, drums are parodies/interpretations of the original songs. You may use it for private study, scholarship, research or language learning purposes only