» » »

Catch 22 - Keasbey Nights Tabs

Artists:  A B C D E F G H I J K L M N O P Q R S T U V W X Y Z # 

Keasbey Nights Tabs

(ver. 1) Click to play this song!
Catch 22
 Rating:
4/5 (4 votes)

 Keasbey Nights lessons Tabs too difficult? Try these video lessons and learn fast
 
                Catch 22 - Keasbey Nights
------------------------------------------------
Figure out the ryhtm yourself, it's easy enough.
Only play the bottom 3 strings, but finger all of them.

Intro:
---5--7--7--5--5--7--5--7-----
---5--9--7--7--5--9--7--9-----
---6--9--8--7--6--9--7--9-----
---7--9--9--7--7--9--7--9-----  x4
---7--7--9--5--7--7--5--7-----
---5-----7-----5--------------

Verse:
---5--7--7--5--5--7--7--5-----
---5--9--7--7--5--9--7--7-----
---6--9--8--7--6--9--8--7-----
---7--9--9--7--7--9--9--7-----  x4  (x2 fast, x2 slow)
---7--7--9--5--7--7--9--5-----
---5-----7-----5-----7--------

---5--5--5--5--5--5--5--5-----
---5--5--5--5--5--5--5--5-----
---6--6--6--6--6--6--6--6----- (so ive gotta keep holding on.... they always played a slow song)
---7--7--7--7--7--7--7--7-----
---7--7--7--7--7--7--7--7-----
---5--5--5--5--5--5--5--5-----

Prechorus:
------------------------------
------------------------------
------------------------------
------------------------------  (nothing while trumpet does starts doin' its thanggg)
------------------------------
------------------------------

---5--7--7--5--5--7--7--5-----
---5--9--7--7--5--9--7--7-----
---6--9--8--7--6--9--8--7-----
---7--9--9--7--7--9--9--7-----  slow
---7--7--9--5--7--7--9--5-----
---5-----7-----5-----7--------

---5--5--5--5--5--5--5--5-----
---5--5--5--5--5--5--5--5-----
---6--6--6--6--6--6--6--6-----
---7--7--7--7--7--7--7--7-----
---7--7--7--7--7--7--7--7-----
---5--5--5--5--5--5--5--5-----

Chorus:
---5--5--5--5--5--5--7--7-----
---5--5--7--7--5--5--9--9-----
---6--6--7--7--6--6--9--9-----
---7--7--7--7--7--7--9--9-----  x2
---7--7--5--5--7--7--7--7-----
---5--5--------5--5-----------

---5----7--5--5----7--5--5----7--5--5----7--5-
---5----9--7--5----9--7--5----9--7--5----9--7-
---6----9--7--6----9--7--6----9--7--6----9--7-
---7----9--7--7----9--7--7----9--7--7----9--7-
---7----7--5--7----7--5--7----7--5--7----7--5-
---5----------5----------5----------5---------

Bridge (Same as Intro):
---5--7--7--5--5--7--5--7-----
---5--9--7--7--5--9--7--9-----
---6--9--8--7--6--9--7--9-----
---7--9--9--7--7--9--7--9-----  x2
---7--7--9--5--7--7--5--7-----
---5-----7-----5--------------

Verse:
---5--7--7--5--5--7--7--5-----
---5--9--7--7--5--9--7--7-----
---6--9--8--7--6--9--8--7-----
---7--9--9--7--7--9--9--7-----  x4  (x2 fast, x2 slow)
---7--7--9--5--7--7--9--5-----
---5-----7-----5-----7--------

---5--5--5--5--5--5--5--5-----
---5--5--5--5--5--5--5--5-----
---6--6--6--6--6--6--6--6----- (well i wont.... they always played a slow song)
---7--7--7--7--7--7--7--7-----
---7--7--7--7--7--7--7--7-----
---5--5--5--5--5--5--5--5-----

Prechorus:
------------------------------
------------------------------
------------------------------
------------------------------
------------------------------
------------------------------

---5--7--7--5--5--7--7--5-----
---5--9--7--7--5--9--7--7-----
---6--9--8--7--6--9--8--7-----
---7--9--9--7--7--9--9--7-----  slow
---7--7--9--5--7--7--9--5-----
---5-----7-----5-----7--------

---5--5--5--5--5--5--5--5-----
---5--5--5--5--5--5--5--5-----
---6--6--6--6--6--6--6--6-----
---7--7--7--7--7--7--7--7-----
---7--7--7--7--7--7--7--7-----
---5--5--5--5--5--5--5--5-----

Chorus:
---5--5--5--5--5--5--7--7-----
---5--5--7--7--5--5--9--9-----
---6--6--7--7--6--6--9--9-----
---7--7--7--7--7--7--9--9-----  x2
---7--7--5--5--7--7--7--7-----
---5--5--------5--5-----------

---5----7--5--5----7--5--5----7--5--5----7--5-
---5----9--7--5----9--7--5----9--7--5----9--7-
---6----9--7--6----9--7--6----9--7--6----9--7-
---7----9--7--7----9--7--7----9--7--7----9--7-
---7----7--5--7----7--5--7----7--5--7----7--5-
---5----------5----------5----------5---------

Bridge:
------------------------------
------------------------------
------------------------------
------------------------------ x4
------------------------------
------------------------------

---5--7--7--5--5--7--5--7-----
---5--9--7--7--5--9--7--9-----
---6--9--8--7--6--9--7--9-----
---7--9--9--7--7--9--7--9-----  x2
---7--7--9--5--7--7--5--7-----
---5-----7-----5--------------

Chorus:
------------------------------
------------------------------
------------------------------
------------------------------ x2
------------------------------
------------------------------

---5--5--5--5--5--5--7--7-----
---5--5--7--7--5--5--9--9-----
---6--6--7--7--6--6--9--9-----
---7--7--7--7--7--7--9--9-----  x2
---7--7--5--5--7--7--7--7-----
---5--5--------5--5-----------

---5----7--5--5----7--5--5----7--5----------5-
---5----9--7--5----9--7--5----9--7----------5-
---6----9--7--6----9--7--6----9--7----------6-
---7----9--7--7----9--7--7----9--7----------7-
---7----7--5--7----7--5--7----7--5----------7-
---5----------5----------5------------------5-
            
Submit corrections


        Keasbey Nights lessons Hard to play? Try these video lessons and learn fast Keasbey Nights lessons
        
↑ Back to top | Tablatures and chords for acoustic guitar and electric guitar, ukulele, drums are parodies/interpretations of the original songs. You may use it for private study, scholarship, research or language learning purposes only