Home » C » Casualties »

Casualties - Punx Unite Bass

Artists:  A B C D E F G H I J K L M N O P Q R S T U V W X Y Z # 

Punx Unite Bass

(ver. 2) Click to play this song!
Casualties
 Rating:
4/5 (4 votes)
                (2)
INTRO: 
G|-----------------| |----------------------------------| 
D|-----------------| x2 |----------------------------------| x2 
A|--9----------9---| |--999999------------------999999--| 
E|-----7---9-------| |----------777777--999999----------| 

(two 11's) (two 11's) 
G|----------------------------------------------------| |---------------| 
D|----88-99 1111-------------------------------9898---| x2 |---------------| 
A|--9---------------66-77-99-----88-99-1111--9------9-| |-8-------------| 
E|---------------77-----------99----------------------| |---7(let ring)-| 


G|-------------------------| 
D|-------------------------| 
A|----------------455-454--| 
E|--7----7----7------------| 


VERSE: 
G|----------------------| 
D|----------------------| x4 
A|-------9999--455-454--| 
E|--7777----------------| 


CHORUS: 
G|--------------------------------| |-------------------------| 
D|--------------------------------| x3 |-------------------------| 
A|--999999--------777777----------| |--999999--------777-777--| 
E|---------777777---------999999--| |---------777777----------| 

G|--------------------------------------------| 
D|--------------------------------------------| 
A|--7777------7777------7777777777------------| 
E|-------7777------7777------------4444-5555--| 

Then it goes: 

verse 
chorus **listen to music to get the order down** 
verse 
chorus 
verse (just bass and drums) 
verse 
chorus 

OUTRO: 
G|--------------------| 
D|--------------------| 
A|------555--7778787--| 
E|--777---------------| 

There you have it, if you've got any questions or any corrections please 
            
Submit corrections

↑ Back to top | Tablatures and chords for acoustic guitar and electric guitar, ukulele, drums are parodies/interpretations of the original songs. You may use it for private study, scholarship, research or language learning purposes only