» » »

Casualties - Punx Unite Bass

Artists:  A B C D E F G H I J K L M N O P Q R S T U V W X Y Z # 

Punx Unite Bass

(ver. 3) Click to play this song!
Casualties
 Rating:
4/5 (4 votes)

 Punx Unite lessons Tabs too difficult? Try these video lessons and learn fast
 
                Intro 1.

G:--------------:    :-----------------------------------------------:
D:--------------: x2 :-----------------------------------------------: x2
A:-9-----------9:    :9-9-9-9-9-9-------------------------9-9-9-9-9-9:
E:-----7---9----:    :------------7-7-7-7-7-7-9-9-9-9-9-9------------:

(I didn't mistake the cords, I play the song like this).
G:-----------------------------------------------:     :---:
D:-9-9-9-9-9-9------------------------9-9-9-9-9-9: x2  :---: x4
A:-------------7-7-7-7-7-7-9-9-9-9-9-9-----------:     :-9-:
E:-----------------------------------------------:     :---:

Verse 1.
G:-------------------------:    :--------:
D:-------------------------: x4 :--------:
A:-4-6-4-6----------9-9-9-9:    :-4-6-4-6:
E:----------7-7-7-7--------:    :--------:

Chorus.
G:--------------------------------:
D:--------------------------------: x4
A:-9-9-9-9---------7-7-7-7--------:
E:---------7-7-7-7---------9-9-9-9:

Interlude.
G:-------------------------------------------------------:
D:-------------------------------------------------------:
A:-9-9-9-9---------9-9-9-9---------9-9-9-9-9-9-----------:
E:---------9-9-9-9---------9-9-9-9------------7-7-7-7-7-7:

Repeat verse 1.
Repeat chorus.
Repeat interlude.
Repeat verse 1.
Repeat chorus.
Repeat interlude.

Bridge.
G:-------------------------------------------:
D:-------------------------------------------: x4
A:-9-9-9-9-9-11-11-11-11-11-9-9-9-9-9-9-9-9-9:
E:-------------------------------------------:

Repeat verse 1.
Repeat chorus.
Repeat interlude.

Outro.
G:-----------------------------:
D:-----------------------------: until the end.
A:-4-4-4--6-6-6--8-8-8-10-10-10:
E:-----------------------------:

Final.(When other instruments finish).
G:----------------------------:
D:------------------------8...:
A:-7-7-7-9-9-9-8...-9-9-8-----:
E:----------------------------:
            
Submit corrections


        Punx Unite lessons Hard to play? Try these video lessons and learn fast Punx Unite lessons
        
↑ Back to top | Tablatures and chords for acoustic guitar and electric guitar, ukulele, drums are parodies/interpretations of the original songs. You may use it for private study, scholarship, research or language learning purposes only