» » »

Casualties - Punx Unite Tabs

Artists:  A B C D E F G H I J K L M N O P Q R S T U V W X Y Z # 

Punx Unite Tabs

(ver. 1) Click to play this song!
Casualties
 Rating:
4/5 (4 votes)

 Punx Unite lessons Tabs too difficult? Try these video lessons and learn fast
 
                THE CASUALTIES
PUNX UNITE
ALBUM?
INTRO
E----------------------------------------------------------------
B----------------------------------------------------------------
G----------------11---------------11-----------------------------
D--11/12----9----11-4X-11/12------11-4X-9----14----11------------
A--11/12----9-4X--9----11/12-------9----9-4X-14-4X-11-4X---------
E---9/10----7-----------9/10------------7----12-----9------------
  ^~~2X~~^  ^~~~~~~~4X~~~~~~^     ^~~~~~~~~~3X~~~~~~~~~~^
E-VERSE----------------------------------------------------------
B----------------------------------------------------------------
G--11------------------------------------------------------------
D--11-4X-9----14------141414999---14----7----9-------------------
A---9----9-4X-14-6X---141414999---14-6X-7-4X-9-4X----------------
E--------7----12------121212777---12----5----7-------------------
                      ^~~~2X~~~^
  ^~~~~~~~~~~~~~~~~~~~~~~~PLAY~EVERYTHING~THREE~TIMES~~~~~~~~~~~^
E--1XX----------------
B--1XX-25X------------
G--1XX---------------- THEN PLAY INTRO AND VERSE ONE MORE TIME 
D---------------------  
A---------------------
E----------PICK-SLIDE-

E----------------------------------------------------------------
B----------------------------------------------------------------
G----------------------------------------------------------------
D--9----12----14----15--14-15-----9----12----14----15------------
A--9-3X-12-3X-14-3X-15--14-15-----9-3X-12-3X-14-3X-15......------
E--7----10----12----13--12-13-----7----10----12----13------------
  ^~~~~~~~~~~~~~~15X~~~~~~~~~^                      
E----------------------------------------------------------------
B----------------------------------------------------------------
G----------------------------------------------------------------
D----------------------------------------------------------------
A----------------------------------------------------------------
E--7-LET-RING....----12131419-LET-RING.......-7.....-------------
            
Submit corrections


        Punx Unite lessons Hard to play? Try these video lessons and learn fast Punx Unite lessons
        
↑ Back to top | Tablatures and chords for acoustic guitar and electric guitar, ukulele, drums are parodies/interpretations of the original songs. You may use it for private study, scholarship, research or language learning purposes only