Home » C » Cassie »

Cassie - Me And U Tabs

Artists:  A B C D E F G H I J K L M N O P Q R S T U V W X Y Z # 

Me And U Tabs

(Version #3)
Cassie
(Intro)
Intro

[--9----------9---]
[-----10--9-------]
[------------9----]
[-----------------]
[-----------------]
[-----------------]

[---9----------9--]
[-----9--11-------]
[------------11---]
[-----------------]
[-----------------]
[-----------------]

This is my first tab...let me know how i do
            
Submit corrections

↑ Back to top | Tablatures and chords for acoustic guitar and electric guitar, ukulele, drums are parodies/interpretations of the original songs. You may use it for private study, scholarship, research or language learning purposes only