Home » C » Cassie »

Cassie - Me And U Tabs

Artists:  A B C D E F G H I J K L M N O P Q R S T U V W X Y Z # 

Me And U Tabs
Version #2
Cassie


Copy URL
(Intro)
Cassie
Me & U
Tuning: Standard


Intro:
|-16------------16--------------|
|-----17-16---------------------|
|------------16-----------------|
|-------------------------------|
|-------------------------------|
|-------------------------------| (Repeat throughout song)

Flute/Synth Part: (0:09)
|-9--------------------------|
|----9-11--------------------|
|----------11--8-------------|
|----------------------------|
|----------------------------|
|----------------------------| (Repeat until Verse)
            
Submit corrections

↑ Back to top | Tablatures and chords for acoustic guitar and electric guitar, ukulele, drums are parodies/interpretations of the original songs. You may use it for private study, scholarship, research or language learning purposes only