Home » C » Carly Rae Jepsen »

Carly Rae Jepsen - I Really Like You Tabs

Artists:  A B C D E F G H I J K L M N O P Q R S T U V W X Y Z # 

I Really Like You Tabs

(ver. 2) Click to play this song!
Carly Rae Jepsen
 Rating:
3.3/5 (23 votes)
                Capo 5

Tuning:

e|----|----|-----|-----------0----|----------------|------------------0------|
B|-1--|--1-|-----|--------------1-|-3-3-3--3-3-3-3-|-3-3-----------------1---|
G|-2--|--0-|--0--|--0--0--2-------|----------------|--------0--0--2----------|
D|-3--|--2-|--0--|----------------|-3------3-------|-------------------------|
A|----|--3-|-----|----------------|----------------|-3---------3-------------|
E|----|----|--3--|----------------|----------------|-------------------------|

e|--------------------------|-----------0---|---------------|------------0---|
B|--3--3-3-3--3--3-1--------|-------------1-|-3-3-3-3-3-3-3-|-3-3----------1-|
G|---------------------2--0-|---0-0---2-----|---------------|------0-0-2-----|
D|--------------------------|---------------|-3-----3-------|----------------|
A|--------------------------|-----0---------|---------------|-3------3-------|
E|--3------3----------------|-3-------------|---------------|----------------|

e|-----------------|-----------|-------------|-0---3-0-------|---------------|
B|--3-3-3-3-3--1---|---1-------|-0---1---1---|-----------3-0-|-0---1--1------|
G|---------------0-|---------2-|---2---2---0-|---0-----------|---0--0----0---|
D|-----------------|-----------|-3-------3---|---------------|---------------|
A|-----------------|-----0-0---|-------------|-3-------3-----|---------------|
E|--3-----3--------|-3---------|-------------|---------------|-3------3------|

e|-0---3-0-------|-------------|-0---3-0-----------|-------------------------|
B|-----------3-0-|-0---1---1-3-|--------------3--3-|---3--3-3--3----3--------|
G|---0-----------|---2---2-----|-------------------|---0-------0-------------|
D|---------------|-3-------3---|---0---------------|---0-------0-------------|
A|---------0-----|-------------|-3---------3-------|-----------2-------------|
E|-3-------------|-------------|-------------------|-3----3----3----3--------|
                     Chorus 
e|-------------------|---3/5-3-0-3-0-----|---------------0-----|--------0----|
B|----1-----1-1------|o--------------3-1-|-3-1--------1--1--3--|--1-1-1------|
G|------2-0-----2-0--|-------------------|-----2-0-2-----0-----|----------2-2|
D|-------------------|o3---------3-------|---------------------|-------------|
A|-------------------|-------------------|-3-------3-----------|-------------|
E|-------------------|-------------------|---------------------|-3----3------|
                       
e|----0---------------|--1--1---3-0-3--|--3--------3--0-3-|
B|--1----------1-1---o|-----1----------|----1-------------|
G|-------2-2-------2--|-----2----------|------------------|
D|-------------------o|--3----3--------|------------------|
A|-------------0------|----------------|--3----3----------|
E|--3-----------------|----------------|------------------|

e|-3-----3-0-3-|-3---------0-|--3/5-3-0-3-0-----|-----------------0----------|
B|---1-----0---|---1-------1-|--------------3-1-|-3---1--------1--1--3-------|
G|-------------|-----------2-|-3----------------|-------2-0--2----0----------|
D|-------------|-----------2-|----------3-------|-3--------------------------|
A|-------------|------0-0----|------------------|------------3---------------|
E|-3---3-------|-3-----------|------------------|----------------------------|
                    Bridge
e|-----0-----------|--------------------------------|------------------------|
B|--1--------1-1---|--------------------------------|------------------------|
G|-------2-2-----2-|----0-0-0-0---------------------|------------------------|
D|-----------------|------------3-2----2-3-2-2-2-2--|---2--------------------|
A|-----------0-----|-----------------3--------------|-------0-0----3-3-3-3---|
E|--3--------------|--1-----------------------------|-3----------------------|

e|---0---------------|---3-|-------------------------------------------------|
B|----------1-1-1-1--|-----|-------------------------------------------------|
G|-----2-2-----------|-----|-------------------------------------------------|
D|-------------------|---x-|-------------------------------------------------|
A|-------------------|---x-|-------------------------------------------------|
E|-------------------|---x-|-------------------------------------------------|
Ending
e|----3/5-3-0-3-0------|-------------0---|---------0-----|---0---------------|
B|----------------3-1--|-3-1-------1-1-3-|---1-1-1-------|-1--------1-1------|
G|---------------------|-----2-0-2---0---|-----------2-2-|------2-2-----2----|
D|--3---------3--------|-----------------|---------------|-------------------|
A|---------------------|-3-------3-------|---------------|----------0--------|
E|---------------------|-----------------|-3-----3-------|-3-----------------|            
Submit corrections

↑ Back to top | Tablatures and chords for acoustic guitar and electric guitar, ukulele, drums are parodies/interpretations of the original songs. You may use it for private study, scholarship, research or language learning purposes only