Home » C » Carly Rae Jepsen »

Carly Rae Jepsen - I Really Like You Tabs

Artists:  A B C D E F G H I J K L M N O P Q R S T U V W X Y Z # 

I Really Like You Tabs

(ver. 1) Click to play this song!
Carly Rae Jepsen
 Rating:
4.5/5 (21 vote)
                Chords (power)
A#X 4 
F X 4
C X 4
C X 2
F X 2

vocals
E|-------------------------------------------|
B|----------10-------------------------------|
G|-------------10-12-12-12-12-12-10-12-12-12-|
D|-10-10-12----------------------------------|
A|-------------------------------------------|
E|-------------------------------------------|

E|-------------------------------------------|---------|
B|----------10-------------------------------|---------|
G|-------------10-12-12-12-12-12-10-7--------|10-------|
D|-10-10-12----------------------------------|---12----|
A|-------------------------------------------|---------|
E|-------------------------------------------|---------|
X2

E|-------------------------------------------------|
B|-----------10-13-10------------------10-13-10----|
G|-9-10-10------------12--10-9-10-10------------12-|
D|---------10------------------------10------------|
A|-------------------------------------------------|
E|-------------------------------------------------|

E|----------------------------------------------------|
B|--------------10-13-10------------------------------|
G|-10-9-10-10------------12-12---10-------10-10-------|
D|------------10--------------------12-10-------12-10-|
A|----------------------------------------------------|
E|----------------------------------------------------|

Chorus
E|-10----------------------------------------------------------------------------------
B|----13-10-13-10-------------------------10---------------10---------10---------------
G|----------------12-10-12-10----------10----12---10-10-10----------10---------10-10---
D|----------------------------12-10-12------------------------12-10------12-10-------12
A|-------------------------------------------------------------------------------------
E|-------------------------------------------------------------------------------------

E|----|-----------------|  |-------|
B|-11-|-13-10-13-13-----|  |-------|
G|----|-------------10--|  |-------|
D|----|-----------------|X3|-12-10-|
A|----|-----------------|  |-------|
E|----|-----------------|  |-------|

X2
            
Submit corrections

↑ Back to top | Tablatures and chords for acoustic guitar and electric guitar, ukulele, drums are parodies/interpretations of the original songs. You may use it for private study, scholarship, research or language learning purposes only