» » »

Camacho Enrique - Burning House Tabs

Artists:  A B C D E F G H I J K L M N O P Q R S T U V W X Y Z # 

Burning House Tabs

(ver. 2) Click to play this song!
Camacho Enrique
 Rating:
2/5 (28 votes)

 Burning House  lessons Tabs too difficult? Try these video lessons and learn fast
 
                Intro
e|12----10---8---7h8p7p0------------------|-12----10---8---7h8p7p0-----------------------------|
b|---0----0---0----------8-10-10-10-10-10-|----0----0---0----------10/8-13/12---12--12--12--12-|
g|----0----0---0-------------0--0--0--0---|-----0----0---0--------------------0---0---0---0----|
d|----------------------------0--0--0--0--|------------------------------------0---0---0---0---|
a|-----------------------7-8--------------|------------------------8/7--12/10------------------|
e|-0--------------------------------------|--0-------------------------------------------------|
                            |<<<<<<<<<<<|                                     |<<<<<<<<<<<<<<<|
                      Note: [Showalter plucks these parts slightly different each time, creative freedom]
                            [Throughout entire song, particularly the live versions]


|12----10-----------------------------|--------------------------------------------|
|---0----0---12-13-10----10---10---10-|-8----8---8---8---10/8-13/12---12--12--12---|
|----0----0-----------0----0----0-----|---0---0---0---0-------------0---0---0---0--|
|----------------------0----0----0----|----0---0---0---0-------------0---0---0---0-|
|------------10-12-8------------------|-7----------------8/7--12/10----------------|
|-0-----------------------------------|--------------------------------------------|


Verse 1
|12----10---8------------------------|-12----10---8------------------------------|
|---0----0---0---8-10--10---10--10---|----0----0---0---10/8-13/12---12--12--12---|
|----0----0---0------0---0----0---0--|-----0----0---0-------------0---0---0---0--|
|---------------------0---0----0---0-|-----------------------------0---0---0---0-|
|----------------7-8-------8---------|-----------------8/7--12/10----------------|
|-0----------------------------------|--0----------------------------------------|
"I had a dream about a burning house  You were stuck inside I couldn't get you out

|12----10---------------------------|----------------------------------------|
|---0----0---12-13-10--10--10--10---|-8--8--8--8---10/8-13/12---12--12--12---|
|----0----0----------0---0---0---0--|--0--0--0--0-------------0---0---0---0--|
|---------------------0---0---0---0-|---0--0--0--0-------------0---0---0---0-|
|------------10-12-8----------------|-7------------8/7--12/10----------------|
|-0---------------------------------|----------------------------------------|
I laid beside you and pulled you close, And the two of us went up in smoke"


Pre-Chorus
|------------------------------------------|----------------------------8-|
|-10-10/12-13---13---0-----8---8-10---10---|-10-10/12-13---13-----------6-|
|-------------0---0----0-----0------0---0--|-------------0---0----------0-|
|--------------0---0----0-----0------0---0-|--------------0---0-------0-0-|
|-8--8/10--12------------0-7-----8---------|-8--8/10--12---------0h7h8--8-|
|------------0-------8---------------------|--------------------8---------|
"Love isn't all that it seems I did you wrong, I'll stay here with you until this dream is gone"


Chorus
|-8-----------------0h7-x-x-x-x--------------|
|-8----------------7----8-8-8-8--8-10---10---|
|-0---------------8-----0-0-0-0-------0---0--| X2
|-0----0h7p0-----0------7-7-7-8--------0---0-|
|-7-0h7-----0h7---------7-7-7-7--7-8---------|
|-8---------------------x-x-x-x--------------|
  G              D      Em       B Csus
[strumming and plucking simultaneously] 

"I've been sleepwalking, Been wandering all night 
Trying to take what's lost and broke and make it right.
I've been sleepwalking, To close to the fire
But it's the only place that I can hold you tight"

|----------|
|-10-13-13-|
|----------| Let Ring
|----------|
|-8--12-10-|
|----------|
 "In this burning house"


Verse 2
|12----10---------------------------|-12----10---8------------------------------|
|---0----0---12-13-10--10--10--10---|----0----0---0---10/8-13/12---12--12--12---|
|----0----0----------0---0---0---0--|-----0----0---0-------------0---0---0---0--|
|---------------------0---0---0---0-|-----------------------------0---0---0---0-|
|------------10-12-8----------------|-----------------8/7--12/10----------------|
|-0---------------------------------|--0----------------------------------------|
"See you at a party and you look the same, I could take you back But people don't ever change"

|12----10---------------------------|----------------------------------------|
|---0----0---12-13-10--10--10--10---|-8--8--8--8---10/8-13/12---12--12--12---|
|----0----0----------0---0---0---0--|--0--0--0--0-------------0---0---0---0--|
|---------------------0---0---0---0-|---0--0--0--0-------------0---0---0---0-|
|------------10-12-8----------------|-7------------8/7--12/10----------------|
|-0---------------------------------|----------------------------------------|
"I Wish that we could go back in time, And I'd be the one you thought you'd find"


Pre-Chorus
|------------------------------------------|----------------------------8-|
|-10-10/12-13---13---0-----8---8-10---10---|-10-10/12-13---13-----------6-|
|-------------0---0----0-----0------0---0--|-------------0---0----------0-|
|--------------0---0----0-----0------0---0-|--------------0---0-------0-0-|
|-8--8/10--12------------0-7-----8---------|-8--8/10--12---------0h7h8--8-|
|------------0-------8---------------------|--------------------8---------|
"Love isn't all that it seems I did you wrong, I'll stay here with you until this dream is gone"


Chorus
|-8-----------------0h7-x-x-x-x--------------|
|-8----------------7----8-8-8-8--8-10---10---|
|-0---------------8-----0-0-0-0-------0---0--| X2
|-0----0h7p0-----0------7-7-7-8--------0---0-|
|-7-0h7-----0h7---------7-7-7-7--7-8---------|
|-8---------------------x-x-x-x--------------|
  G              D      Em       B Csus
[strumming and plucking simultaneously]

"I've been sleepwalking, Been wandering all night
Trying to take what's lost and broken make it right
I've been sleepwalking, Too close to the fire
But it's the only the place that I can hold you tight"

Refrain
|------------------------------------------|
|-10-10/12-13---13---0-----8---8-10---10---|
|-------------0---0----0-----0------0---0--| X3
|--------------0---0----0-----0------0---0-|
|-8--8/10--12------------0-7-----8---------|
|------------0-------8---------------------|
"In this burning house, The flames are getting bigger now
In this burning house, I can hold on to you somehow
In this burning house, Oh and I don't want to wake up"


|----------|
|-10-13-13-|
|----------| Let Ring
|----------|
|-8--12-10-|
|----------|
"In this burning house"


Chorus
|-8-----------------0h7-x-x-x-x--------------|
|-8----------------7----8-8-8-8--8-10---10---|
|-0---------------8-----0-0-0-0-------0---0--| X2
|-0----0h7p0-----0------7-7-7-8--------0---0-|
|-7-0h7-----0h7---------7-7-7-7--7-8---------|
|-8---------------------x-x-x-x--------------|
  G              D      Em       B Csus
[strumming and plucking simultaneously]

"Oh I've been sleepwalking, Been wandering all night
Trying to make what's lost and broke and make it right
I've been sleepwalking, Too close to the fire
But it's the only place that I can hold you tight"


|----------|
|-10-13-13-|
|----------| Let Ring
|----------|
|-8--12-10-|
|----------|
"In this burning house"
            
Submit corrections


        Burning House  lessons Hard to play? Try these video lessons and learn fast Burning House  lessons
        
↑ Back to top | Tablatures and chords for acoustic guitar and electric guitar, ukulele, drums are parodies/interpretations of the original songs. You may use it for private study, scholarship, research or language learning purposes only