Home » C » Camacho Enrique »

Camacho Enrique - Burning House Tabs

Artists:  A B C D E F G H I J K L M N O P Q R S T U V W X Y Z # 

Burning House Tabs

(ver. 3) Click to play this song!
Camacho Enrique
 Rating:
4.4/5 (8 votes)
                [Intro]
   
e|-7----5----3----2h3---0-----------------------------------------------|
B|---0----0----0----------3--5--------5-----5-----5---------------------|
G|----0----0----0-----------------0-----0-----0-----0-------------------|
D|----------------------------------------------------------------------|
A|------------------------2--3------3-----3-----3 -----3----------------|
E|-0--------------------------------------------------------------------|

e|-7----5----3----2h3---------------------------------------------------|
B|---0----0----0---------5\3-8\7---7-----7-----7-----7------------------|
G|----0----0----0--------------------0-----0-----0-----0----------------|
D|----------------------------------------------------------------------|
A|-----------------------3\2-7\5-------5-----5-----5--------------------|
E|-0--------------------------------------------------------------------|

e|--7----5--------------------------------------------------------------|
B|----0----0----7-8-5------5-----5-----5-----5--------------------------|
G|-----0----0----------0-----0-----0-----0-----0------------------------|
D|----------------------------------------------------------------------|
A|--------------5-7-3----3-----3-----3-----3-----3----------------------|
E|--0-------------------------------------------------------------------|

e|----------------------------------------------------------------------|
B|---3------3-----3-----3-----3--------5\3-8\7---7-----7-----7-----7----|
G|------0-----0-----0-----0-----0------------------0-----0-----0-----0--|
D|----------------------------------------------------------------------|
A|---2----2-----2-----2-----2----2----3\2-7\5-------5-----5-----5-------|
E|----------------------------------------------------------------------|


[Verse 1]

e|--7----5--------------------------------------------------------------|
B|----0----0-----8\7------3/5---------5-----5-----5---------------------|
G|-----0----0--------0------------0-----0-----0-----0-------------------|
D|----------------------------------------------------------------------|
A|------------------------2/3-------3-----3-----3-----3-----------------|
E|--0----0--------------------------------------------------------------|

"I had a dream about a burning house"

e|--7----5--------------------------------------------------------------|
B|----0----0---8\7-------5/3-8/7---7-----7-----7-----7------------------|
G|-----0----0------0-----------------0-----0-----0-----0----------------|
D|----------------------------------------------------------------------|
A|-----------------------3/2-7/5-------5-----5-----5--------------------|
E|--0----0--------------------------------------------------------------|

"You were stuck inside I couldn't get you out"

    Em
e|--7----5--------------------------------------------------------------|
B|----0----0----7-8-5------5-----5-----5-----5--------------------------|
G|-----0----0----------0-----0-----0-----0-----0------------------------|
D|----------------------------------------------------------------------|
A|--------------5-7-3----3-----3-----3-----3-----3----------------------|
E|--0-------------------------------------------------------------------|

"I laid beside you and I pulled you close"

e|----------------------------------------------------------------------|
B|---3------3-----3-----3------5\3-8\7---7-----7-----7-----7------------|
G|------0-----0-----0-----0----------------0-----0-----0-----0----------|
D|----------------------------------------------------------------------|
A|---2----2-----2-----2--------3\2-7\5-------5-----5-----5--------------|
E|----------------------------------------------------------------------|

"And the two of us went up in smoke"


[Pre-Chorus]

e|----------------------------------------------------------------------|
B|--5-----5/7/8--8-----8------8-----------0----5--------5---------------|
G|----0------------0-----0------0---0---------------0-----0-------------|
D|----------------------------------------------------------------------|
A|--3---3-3/5/7------7-----7----------2-----2--3------3-----3-----------|
E|----------------------------------3---3-------------------------------|

"Love isn't all that it seems I did you wrong"

e|----------------------------------------------------------------------|
B|--5-----5/7/8--8-----8------8-------------5---------------------------|
G|----0------------0-----0------0---------------------------------------|
D|-----------------------------------0----------------------------------|
A|--3---3-3/5/7------7-----7---------0h2-2--3---------------------------|
E|---------------------------------3------------------------------------|

"I'll stay here with you until this dream is gone"


[Chorus]

     G                              D
e|--------------------------------------------2------------2------------|
B|----------------------------------------3------3-----3------0---------|
G|---0-----0-----0-----0-----0-----0----------2------2-----2------0-----|
D|------0----0-----0-----0-----0-----0-------------0--------------------|
A|--------2----2-----------2-----2--------------------------------------|
E|---3------------------------------------------------------------------|

"I've been sleep walking, been wandering all night" 

   Em                               
e|----------------------------------------------------------------------|
B|--0------------------------------3------------------------------------|
G|-----0--------0-----0--------0------------0-----0-----0-----0---------|
D|-------2--------2-----2-------------0h2-----2-----2-----2-----2-------|
A|---------0h2------2------0h2-----2--3---------3-----3-----3-----------|
E|--0-------------------------------------------------------------------|

"Trying to take what's lost and broke and make it right"

   G                    D
e|-----------------------------------------2-------------2--------------|
B|---------------------------------------3------3------3------0---------|
G|-0-------0-----0-----0-----0-----0---------2------2------2-----0------|
D|-0h2-0-----0-----0-----0-----0-----0------------0---------------------|
A|-------2-----2-----------2-----2--------------------------------------|
E|-3--------------------------------------------------------------------|

"I've been sleepwalking, too close to the fire" 
   Em                               
e|----------------------------------------------------------------------|
B|--0------------------------------3--------------------------5-----8-7-|
G|-----0--------0-----0--------0------------0-----0-----0-------0-------|
D|-------2--------2-----2-------------0h2-----2-----2-----2-------------|
A|---------0h2------2------0h2-----2--3---------3-----3-----3-----3-7-5-|
E|--0-------------------------------------------------------------------|

"But it's the only place that I can hold you tight, in this burning house"


[Verse 2]

e|--7----5--------------------------------------------------------------|
B|----0----0----7-8-5-------5-----5-----5-----5-0-----------------------|
G|-----0----0-----------0-----0-----0-----0-------0---------------------|
D|----------------------------------------------------------------------|
A|--------------5-7-3-----3-----3-----3-----3---------------------------|
E|--0----0--------------------------------------------------------------|

"See you at a party and you look the same"

e|--7----5--------------------------------------------------------------|
B|----0----0---8\7-------5/3-8/7---7-----7-----7-----7------------------|
G|-----0----0------0-----------------0-----0-----0-----0----------------|
D|----------------------------------------------------------------------|
A|-----------------------3/2-7/5-------5-----5-----5--------------------|
E|--0----0--------------------------------------------------------------|

"I could take you back but people don't ever change" 

e|--7----5--------------------------------------------------------------|
B|----0----0----7-8-5------5-----5-----5-----5--------------------------|
G|-----0----0----------0-----0-----0-----0-----0------------------------|
D|----------------------------------------------------------------------|
A|--------------5-7-3----3-----3-----3-----3-----0----------------------|
E|--0-------------------------------------------------------------------|

"Wish that we could go back in time"


e|----------------------------------------------------------------------|
B|---3------3-----3-----3------5\3-8\7---7-----7-----7------7-----------|
G|------0-----0-----0-----0----------------0-----0-----0------0---------|
D|----------------------------------------------------------------------|
A|---2----2-----2-----2--------3\2-7\5-------5-----5-----5--------------|
E|----------------------------------------------------------------------|

"I'd be the one you thought you'd find"


[Pre-Chorus]

e|----------------------------------------------------------------------|
B|--5-----5/7/8--8-----8-----8-----------0-----5--------5-----0---------|
G|----0------------0-----0-----0---0----------------0-----0-------------|
D|----------------------------------------------------------------------|
A|--3---3-3/5/7------7-----7---------2-----2---3------3-----3-----------|
E|---------------------------------3---3--------------------------------|

"love isn't all that it seems I did you wrong"



e|----------------------------------------------------------------------|
B|--5-----5/7/8--8-----8-----8-------------5----------------------------|
G|----0------------0-----0-----0----------------------------------------|
D|----------------------------------0-----------------------------------|
A|--3---3-3/5/7------7-----7--------0h2-2--3----------------------------|
E|--------------------------------3-------------------------------------|

"I'll stay with you until this dream is gone"


[Chorus]

     G                              D
e|--------------------------------------------2------------2------------|
B|----------------------------------------3------3-----3------0---------|
G|---0-----0-----0-----0-----0-----0----------2------2-----2------0-----|
D|------0----0-----0-----0-----0-----0-------------0--------------------|
A|--------2----2-----------2-----2--------------------------------------|
E|---3------------------------------------------------------------------|

"I've been sleepwalking, been wandering all night"


e|----------------------------------------------------------------------|
B|--0----------------------------3--------------------------------------|
G|-----0-------0------0-------0-----------0-----0-----0-----0-----------|
D|-------2-------2------2-----------0h2-----2-----2-----2-----2---------|
A|---------0h2-----2------0h2----2--3---------3-----3-----3-------------|
E|--0-------------------------------------------------------------------|

"Trying to take what's lost and broke and make it right"

   G                    D
e|-----------------------------------------2-------------2--------------|
B|---------------------------------------3------3------3------0---------|
G|-0-------0-----0-----0-----0-----0---------2------2------2-----0------|
D|-0h2-0-----0-----0-----0-----0-----0------------0---------------------|
A|-------2-----2-----------2-----2--------------------------------------|
E|-3--------------------------------------------------------------------|

"I've been sleepwalking, too close to the fire"

   Em     
e|---------------------------------------------------------------------------------|
B|--0-------------------------3-----------------------------5----8-7----7---7------|
G|-----0------0-----0-----------------0-----0------0-----0-----0-----0---0---0-----|
D|-------2------2-----2----------0h2----2-----2-----2----2-------------------------|
A|---------0h2----2-----0h2---2--3--------3------3-----3---3---3-7-5----5---5---5--|
E|--0------------------------------------------------------------------------------|  

"But it's the only place that I can hold you tight, in this burning house"  


[Bridge]


e|-----------------------------------------------------------------------|
B|--3-----3----3----5------5----5----5----5----5--8-7----7----7-----7----|
G|-----0----0----0-----0-----0----0----0----0---------0----0----0-----0--|
D|-----------------------------------------------------------------------|
A|--2----2----2-----3----3-----3----3---------3---7-5---5----5----5------|
E|-----------------------------------------------------------------------|
"The flames are getting bigger now, in this burning house"


e|-----------------------------------------------------------------------|
B|--3-----3----3----5------5----5----5----5----5--8-7----7----7-----7----|
G|-----0----0----0-----0-----0----0----0----0---------0----0----0-----0--|
D|-----------------------------------------------------------------------|
A|--2----2----2-----3----3-----3----3---------3---7-5---5----5----5------|
E|-----------------------------------------------------------------------|

"I could hold onto you somehow, in this burning house"

e|---------------------------------------------------------------------|
B|--3-----3----3----5------5----5----5----5----5--8-7------------------|
G|-----0----0----0-----0-----0----0----0----0--------------------------|
D|---------------------------------------------------------------------|
A|--2----2----2-----3----3-----3----3---------3---7-5------------------|
E|---------------------------------------------------------------------|

"Oh, and I don't wanna wake up, in this burning house"


[Chorus]

     G                              D
e|--------------------------------------------2------------2------------|
B|----------------------------------------3------3-----3------0---------|
G|---0-----0-----0-----0-----0-----0----------2------2-----2------0-----|
D|------0----0-----0-----0-----0-----0-------------0--------------------|
A|--------2----2-----------2-----2--------------------------------------|
E|---3------------------------------------------------------------------|


"And I've been sleepwalking, wandering all night"


e|----------------------------------------------------------------------|
B|--0------------------------------3-------------3--3/5-5-5-5-5---------|
G|-----0-------0------0-------0------------0-----0--0--0-0-0-0--0-------|
D|-------2-------2------2-------2-----0h2----2--------------------0-----|
A|---------0h2-----2------0h2------2--3--------3------------------------|
E|--0-------------------------------------------------------------------|

"Trying to take what's lost and broke and make it right"

   G                    D
e|-----------------------------------------2-------------2--------------|
B|---------------------------------------3------3------3------0---------|
G|-0-------0-----0-----0-----0-----0---------2------2------2-----0------|
D|-0h2-0-----0-----0-----0-----0-----0------------0---------------------|
A|-------2-----2-----------2-----2--------------------------------------|
E|-3--------------------------------------------------------------------|

"I've been sleepwalking, too close to the fire"

   Em                               
e|----------------------------------------------------------------------|
B|--0------------------------------3--------------------------5-----8-7-|
G|-----0--------0-----0--------0------------0-----0-----0-------0-------|
D|-------2--------2-----2-------------0h2-----2-----2-----2-------------|
A|---------0h2------2------0h2-----2--3---------3-----3-----3-----3-7-5-|
E|--0-------------------------------------------------------------------|

"But it's the only place that I can hold you tight, in this burning house"            
Submit corrections

↑ Back to top | Tablatures and chords for acoustic guitar and electric guitar, ukulele, drums are parodies/interpretations of the original songs. You may use it for private study, scholarship, research or language learning purposes only