Home » C » Calvin Harris »

Calvin Harris - Outside Tabs

Artists:  A B C D E F G H I J K L M N O P Q R S T U V W X Y Z # 

Outside Tabs

(ver. 2) Click to play this song!
Calvin Harris
Tuning: Standard (Capo 3)

  P.M........................................................................|
e|---------------------------------3--2--------------------------------------|
B|---------------------------------0--0--------------------------------------|
G|--7--7--4--4--4-----4--4--2--4------------11-11-7--7--7-----9--9--6--6--6--|
D|--5--5--5--5--5-----5--5--5--5------------9--9--9--9--9-----7--7--7--7--7--|
A|---------------------------------------------------------------------------|
E|----------------------repeat-x5--------------------------------------------|

e|-------------------------------3\2-----------------------------------------|
B|---------------------------------------------------------------------------|
G|--7--7\4--4--4-----4--4\2--4------------11--11\7--7--7-----9--9\6--6--6----|
D|---------------------------------------------------------------------------|
A|---------------------------------------------------------------------------|
E|---------------------------------------------------------------------------| 
            
Submit corrections

↑ Back to top | Tablatures and chords for acoustic guitar and electric guitar, ukulele, drums are parodies/interpretations of the original songs. You may use it for private study, scholarship, research or language learning purposes only