Home » C » Calvin Harris »

Calvin Harris - Outside Tabs

Artists:  A B C D E F G H I J K L M N O P Q R S T U V W X Y Z # 

Outside Tabs

(ver. 1) Click to play this song!
Calvin Harris
Verse synth 
e|-1-1----------------6-5------1-1-1--3----------||
b|-----3-3-3-----------------3------------5-5-5--||
g|------------7-7-5-7------2------------5--------||
D|-----------------------------------------------||
A|-----------------------------------------------||
E|-----------------------------------------------||

chorus synth
e|-1-1----------------6-5—5-5-5------3-3-3-------||
b|-----3-3-3--------------------6-6--------5-5---||
g|------------7-7-5-7----------------------------||
D|-----------------------------------------------||
A|-----------------------------------------------||
E|-----------------------------------------------||


bass ?
e|----------------------------------||
b|----------------------------------||
g|----------------------------------||
D|----------------------------------||
A|-----------------2-2-2-2-0-0-0-0--||
E|-3-3-3-3—0-0-0-0------------------||


Chords
G x4
Em x4
Bm x4
A x4

Melody
verse
E|-----1-5-3-----1—5-3-1-0--3-1--|
B|-1-3---------3-----------------|
G|-------------------------------|
D|-------------------------------|
A|-------------------------------|
E|-------------------------------|

E|-----1-5-3--------1--5-3------------10-10-8--------10-8-------------------|
B|-1-3----------3-3-------6-5--3-------------10-8--------10-8-8-10-8---6----|
G|-------------------------------5---------------------------------------7--|
D|--------------------------------------------------------------------------|
A|--------------------------------------------------------------------------|
E|--------------------------------------------------------------------------|


E|-----1-0-0-----------1-1----1-1-------1-1-1-1--------1-1-----3-1----5-3---3-|
B|-3-3-------3-1---1-3-----3------3---3----------3-3-3------3-----------------|
G|----------------------------------------------------------------------------|
D|----------------------------------------------------------------------------|
A|----------------------------------------------------------------------------|
E|----------------------------------------------------------------------------|

Chorus
E|-3-3-3-5-3-1-1--3-3-3-5-3--1-------3-1---3-3-3-5-3-1-----------8-6---5-3--|
B|------------------------------3----------------------8-8-8-6-8------------|
G|--------------------------------------------------------------------------|
D|--------------------------------------------------------------------------|
A|--------------------------------------------------------------------------|
E|--------------------------------------------------------------------------|

E|---3-3-3-5-3-1-1--3-3-3-5-3--3------3-1---3-3-3-5-3----3-3-3-5--3---------|
B|-3-----------------------------6--3------------------6------------6--3----|
G|--------------------------------------------------------------------------|
D|--------------------------------------------------------------------------|
A|--------------------------------------------------------------------------|
E|--------------------------------------------------------------------------|
            
Submit corrections

↑ Back to top | Tablatures and chords for acoustic guitar and electric guitar, ukulele, drums are parodies/interpretations of the original songs. You may use it for private study, scholarship, research or language learning purposes only