» » »

Calvin Harris - I'm Not Alone Tabs

Artists:  A B C D E F G H I J K L M N O P Q R S T U V W X Y Z # 

I'm Not Alone Tabs

(ver. 1) Click to play this song!
Calvin Harris
 Rating:
4/5 (4 votes)
                -----------------------------------------------------------------------------
-----------------------------------------------------------------------------

Tuning: EADGBE

This tab is for the main synth riff. 
Play them in the order you see them here and you will see them fit together nicely.

e|------------------------o----|
B|----o----o----3----3---------|
G|-----------------------------|
D|-----------------------------|
A|----o----o----2----2----3----|
E|-----------------------------|

e|----o--------------|
B|---------3----1----|
G|-------------------|
D|-------------------|
A|----3----2----o----|
E|-------------------|

e|----3----3----7----7----o----|
B|-----------------------------|
G|--------------o----o---------|
D|-----------------------------|
A|------------------------3----|
E|----o----o-------------------|

e|----o-------------|
B|--------3----1----|
G|------------------|
D|------------------|
A|----3---2----o----|
E|------------------|

Now repeat the until your fingertips hurt.

============================================================================
            
Submit corrections

↑ Back to top | Tablatures and chords for acoustic guitar and electric guitar, ukulele, drums are parodies/interpretations of the original songs. You may use it for private study, scholarship, research or language learning purposes only