» » »

Butterfly Effect - Reach Tabs

Artists:  A B C D E F G H I J K L M N O P Q R S T U V W X Y Z # 

Reach Tabs

(ver. 1) Click to play this song!
Butterfly Effect
 Rating:
4/5 (7 votes)

 Reach lessons Tabs too difficult? Try these video lessons and learn fast
 
                (Intro)
-------------------------------------------------------------------------------
                             Reach - The butterfly effect
-------------------------------------------------------------------------------

Tuning: drop c

this is just the intro and the verses ill try and figure out the chorus later. 

d|--------------------------------------------------------------------------------------------|
a|--------------------------------------------------------------------------------------------|
f|--------------------------------------------------------------------------------------------|
c|-----------------18-16~------------------18-16~------------------------------------16-14-12~|
g|--------------------------------------------------------------------------------------------|
C|--0-16-16-16-16~----------0-16-16-16-16~----------16-16-16-16/14-14-14-14/12-12-12----------|

d|---------------------------------------------------------------------------|
a|---------------------------------------------------------------------------|
f|---------------------------------------------------------------------------|
c|-------------12-11-9-------x 3 i think lol.
g|---------------------------------------------------------------------------|
C|--0-9-9-9-9----------------------------------------------------------------|

verse
d|---------------------------------------------------------------------------|
a|---------------------------------------------------------------------------|
f|---------------------------------------------------------------------------|
c|---12h14--0--10-11-12-10-11-12-10-11-12-10-11-12-10-11-12--0---------------|
g|---12h14--0--10-11-12-10-11-12-10-11-12-10-11-12-10-11-12--0---------------|
C|---12h14--0--10-11-12-10-11-12-10-11-12-10-11-12-10-11-12--0---------------|

d|---------------------------------------------------------------------------|
a|---------------------------------------------------------------------------|
f|---------------------------------------------------------------------------|
c|---10-11-12-10-11-12-10-11-12-10-11-12/14----------------------------------|
g|---10-11-12-10-11-12-10-11-12-10-11-12/14----------------------------------|
C|---10-11-12-10-11-12-10-11-12-10-11-12/14----------------------------------|

then go to to the first bar but skip the 12/14.
im pretty sure this is close to perfect
            
Submit corrections


        Reach lessons Hard to play? Try these video lessons and learn fast Reach lessons
        
↑ Back to top | Tablatures and chords for acoustic guitar and electric guitar, ukulele, drums are parodies/interpretations of the original songs. You may use it for private study, scholarship, research or language learning purposes only