» » »

Butterfly Effect - Reach Tabs

Artists:  A B C D E F G H I J K L M N O P Q R S T U V W X Y Z # 

Reach Tabs

(ver. 3) Click to play this song!
Butterfly Effect
 Rating:
4.4/5 (7 votes)

 Reach lessons Tabs too difficult? Try these video lessons and learn fast
 
                Drop D Tuning - D A D G B E

Legend
x - palm mute
/ - slide up

Intro
Use reverb

E|--------------------------------|----------------------------------------|
B|--------------------------------|----------------------------------------|
G|---------7--5-------------7--5--|--------------5--3----------------------|
D|--------------------------------|-------------------5--------------7--5--|
A|--------------------------------|---------------------------------------7|
D|5--7-7-7---------5--7-7-7-------|7-7-5-5-3-3-3------------3--5-5-5-------|

Repeat 3 times

E|-------|
B|-------|
G|-------|
D|5-7-0--|
A|5-7-0--|
D|5-7-0--|

E|-------------------------------|------------------------------|
B|-------------------------------|------------------------------|
G|-------------------------------|------------------------------|
D|5-7-8-5-7-8-5-7-8-5-7-8-5-7-0--|5-7-8-5-7-8-5-7-8-5-7-5-8--0--|
A|5-7-8-5-7-8-5-7-8-5-7-8-5-7-0--|5-7-8-5-7-8-5-7-8-5-7-5-8--0--|
D|5-7-8-5-7-8-5-7-8-5-7-8-5-7-0--|5-7-8-5-7-8-5-7-8-5-7-5-8--0--|

Repeat twice.

Verse 1

E|-------------------------------|
B|-------------------------------|
G|-------------------------------|
D|-------------------------------|
A|-------------------------------|
D|5-7-8-5-7-8-5-7-8-5-7-8-5-7-0--|

Repeat four times

E|---------------|
B|---------------|
G|7---7-7--7--9--|
D|x---x-x--x--x--|
A|5---5-5--5--7--|
D|---------------|

E|-------------------------------|
B|-------------------------------|
G|-------------------------------|
D|-------------------------------|
A|-------------------------------|
D|5-7-8-5-7-8-5-7-8-5-7-8-5-7-0--|

Repeat four times

Chorus

E|---------------------------------------------------------------------|
B|---------------------------------------------------------------------|
G|7----7----7------------------------7--------------7------------------|
D|x----x----x----5-5--5--7-7--0--0---x----5-7-8-0---x--5-7-8-5-7-8-0---|
A|5----5----5----5-5--5--7-7--0--0---5----5-7-8-0---5--5-7-8-5-7-8-0---|
D|---------------5-5--5--7-7--0--0--------5-7-8-0------5-7-8-5-7-8-0---|

Repeat twice

Pre-Verse

E|--------------------------|
B|--------------------------|
G|--------------------------|
D|7-7-7----5-5-5---5-7--0---|
A|5-5-5----3-3-3---5-7--0---|
D|-----------------5-7--0---|

Verse 2

E|-------------------------------|
B|-------------------------------|
G|-------------------------------|
D|-------------------------------|
A|-------------------------------|
D|5-7-8-5-7-8-5-7-8-5-7-8-5-7-0--|

Repeat four times

E|---------------|
B|---------------|
G|7---7-7--7--9--|
D|x---x-x--x--x--|
A|5---5-5--5--7--|
D|---------------|

E|-------------------------------|
B|-------------------------------|
G|-------------------------------|
D|-------------------------------|
A|-------------------------------|
D|5-7-8-5-7-8-5-7-8-5-7-8-5-7-0--|

Repeat four times

Chorus

E|---------------------------------------------------------------------|
B|---------------------------------------------------------------------|
G|7----7----7------------------------7--------------7------------------|
D|x----x----x----5-5--5--7-7--0--0---x----5-7-8-0---x--5-7-8-5-7-8-0---|
A|5----5----5----5-5--5--7-7--0--0---5----5-7-8-0---5--5-7-8-5-7-8-0---|
D|---------------5-5--5--7-7--0--0--------5-7-8-0------5-7-8-5-7-8-0---|

Repeat twice

Bridge

E|--------------------------------------------|
B|--------------------------------------------|
G|-----------------9--9-9-9--9-9-9--9-9-9--7-7|
D|8-------7--------x--x-x-x--x-x-x--x-x-x--x-x|
A|8-------7--------7--7-7-7--7-7-7--7-7-7--5-5|
D|8-------7-----------------------------------|

Repeat 3 times

E|---------|
B|---------|
G|---------|
D|5-7--0---|
A|5-7--0---|
D|5-7--0---|

E|--------------------------------|
B|--------------------------------|
G|--------------------------------|
D|5-7-8-5-7-8-5-7-8-5-7-8-5-7--0--|
A|5-7-8-5-7-8-5-7-8-5-7-8-5-7--0--|
D|5-7-8-5-7-8-5-7-8-5-7-8-5-7--0--|

Repeat 4 times

Chorus

E|-------------------------------------------------------------------------|
B|-------------------------------------------------------------------------|
G|--7------7----------------7-7-7-7-9-9-9-9----------7-7-7-7-9-9-10-7------|
D|5-x--5-5-x--5-5--5--7-7-0-x-x-x-x-x-x-x-x-5-7-8-0--x-x-x-x-x-x-x--x-5-7-8|
A|5-5--5-5-5--5-5--5--7-7-0-5-5-5-5-7-7-7-7-5-7-8-0--5-5-5-5-7-7-8--5-5-7-8|
D|5----5-5----5-5--5--7-7-0-----------------5-7-8-0-------------------5-7-8|

E|-----------------------------------------------------------------------|
B|-----------------------------------------------------------------------|
G|--7------7----------------7-7-7-7-9-9-9-9--------7-7-7-7-9-9-10-7------|
D|5-x--5-5-x--5-5--5--7-7-0-x-x-x-x-x-x-x-x-5-x-5--x-x-x-x-x-x-x--x-5-7-8|
A|5-5--5-5-5--5-5--5--7-7-0-5-5-5-5-7-7-7-7-5-x-5--5-5-5-5-7-7-8--5-5-7-8|
D|5----5-5----5-5--5--7-7-0-----------------5-x-5-------------------5-7-8|

Coda (Outro)

E|----------------------------------------|--------------------------------|
B|----------------------------------------|--------------------------------|
G|--------------5--3----------------------|---------7--5-------------7--5--|
D|-------------------5--------------7--5--|--------------------------------|
A|---------------------------------------7|--------------------------------|
D|7-7-5-5-3-3-3------------3--5-5-5-------|5--7-7-7---------5--7-7-7-------|

Repeat 4 times

E|-----------------------|
B|-----------------------|
G|9-----------------9----|
D|---7/9----9-5/7-----7/9|
A|-----------------------|
D|-----------------------|

Repeat 2 times
            
Submit corrections


        Reach lessons Hard to play? Try these video lessons and learn fast Reach lessons
        
↑ Back to top | Tablatures and chords for acoustic guitar and electric guitar, ukulele, drums are parodies/interpretations of the original songs. You may use it for private study, scholarship, research or language learning purposes only