» » »

Butterfly Effect - Gone Tabs

Artists:  A B C D E F G H I J K L M N O P Q R S T U V W X Y Z # 

Gone Tabs

(ver. 3) Click to play this song!
Butterfly Effect
 Rating:
4/5 (8 votes)

 Gone lessons Tabs too difficult? Try these video lessons and learn fast
 
                hey....most of the tabs ive seen are proper sh*t so i tried to figure it out myself and 
is how it came out....

tuning- ebgdaD (dropped D)

Just repeat this 3X

e--------------------------------------------------------+
b--------------------------------------------------------+
g--------------------------------------------------------+ (PART 1 !!!)
d-5-5555-5-4-2-44-44-4-2-0-------------------------------+
a-2-2222-2-2-2-00-00-0-0-0-------------------------------+
D-2-2222-2-2-2-00-00-0-0-0-------------------------------+

just get the rythm wif that^

>>>>>then<<<<<<

after that bit play this :

e---------------------------------------------------------|
b---------------------------------------------------------|
g-1212121212-1111111111-9-9-9-9-9-7-7-7-7-7---------------| (PART 2!!!)
d--x-x-x-x-x--x-x-x-x-x-x-x-x-x-x-x-x-x-x-x---------------|
a-1010101010--9-9-9-9-9-7-7-7-7-7-5-5-5-5-5---------------|
D---------------------------------------------------------|

              ^------- { x2 } -------^ just get the rythm agen

Chorus****

e-------------------------------------------------------|
b-------------------------------------------------------|
g-------------------------------------------------------| ( x2 )
d-------------------------------------------------------|
a-9-9-9-9-9-9h10-10-10-10-10-10/7-7-7-7-7-7/5-5-5-5-5-5-|
D-------------------------------------------------------|
"I'm afraid your gone"....."I don't want you...."

then...

e-
b-
g- (PART 2!!!!)
d-
a-
D-

"Ive got the sun in my eyes".......

illl finish it off later for ya...but i hav to go to bed....its all in my head dnt worry 
remember
            
Submit corrections


        Gone lessons Hard to play? Try these video lessons and learn fast Gone lessons
        
↑ Back to top | Tablatures and chords for acoustic guitar and electric guitar, ukulele, drums are parodies/interpretations of the original songs. You may use it for private study, scholarship, research or language learning purposes only