» » »

Butterfly Effect - Gone Tabs

Artists:  A B C D E F G H I J K L M N O P Q R S T U V W X Y Z # 

Gone Tabs

(ver. 2) Click to play this song!
Butterfly Effect
 Rating:
3.7/5 (6 votes)

 Gone lessons Tabs too difficult? Try these video lessons and learn fast
 
                Love these guys, right after In Flames, just got theyre album, loved it, and couldn't 
a tab! So im gunna do my best to tab it. Use plenty of distortion when playing.
If you find a mistake post about it.
And dont post in comments if you havent tried the tab.
Standard Tuning - E B G D A E
Legend
h - hammer on
/ - slide up
\ - slide down
p - pull-off
x - mute
px - palm mute
v - vibrato

Intro

E|------------------|-----------------|
B|------------------|-----------------|
G|------------------|-----------------|
D|------------------|-----------------|
A|7-7-7-7-7-7--7--7-|5-5-5-5-5-5--5--5|
E|5-5-5-5-5-5--5--5-|3-3-3-3-3-3--3--3| play twice

E|----------------------------|---------------------------|
B|----------------------------|---------------------------|
G|----------------------------|---------------------------|
D|5--5-5-3--3-3---------------|5--5-5p3--3-3p0------------|
A|--------------5--5-5-3--3-3-|-----------------5-5p3--3-3|
E|----------------------------|---------------------------|

Verse

E|------------------|-----------------|
B|------------------|-----------------|
G|------------------|-----------------|
D|------------------|-----------------|
A|7-7-7-7-7-7--7--7-|5-5-5-5-5-5--5--5|
E|5-5-5-5-5-5--5--5-|3-3-3-3-3-3--3--3| play 3 times

E|----------------------------|---------------------------|
B|----------------------------|---------------------------|
G|----------------------------|---------------------------|
D|5--5-5-3--3-3---------------|5--5-5p3--3-3p0------------|
A|--------------5--5-5-3--3-3-|-----------------5-5p3--3-3|
E|----------------------------|---------------------------|
Repeat whole thing again.

Chorus

E|------------------------------------|-----------------------|
B|------------------------------------|-----------------------|
G|10-10-10-10-10-10-12-12-12-12-12-12-|9-9-9-9-9-9-7-7-7-7-7-7|
D|x--x--x--x--x--x--x--x--x--x--x--x--|x-x-x-x-x-x-x-x-x-x-x-x|
A|8--8--8--8--8--8--10-10-10-10-10-10-|7-7-7-7-7-7-5-5-5-5-5-5|
E|------------------------------------|-----------------------| play twice

E|----------------------------|---------------------------|
B|----------------------------|---------------------------|
G|----------------------------|---------------------------|
D|5--5-5-3--3-3---------------|5--5-5p3--3-3p0------------|
A|--------------5--5-5-3--3-3-|-----------------5-5p3--3-3|
E|----------------------------|---------------------------|

E|------------------------------------|-----------------------|
B|------------------------------------|-----------------------|
G|10-10-10-10-10-10-12-12-12-12-12-12-|9-9-9-9-9-9-7-7-7-7-7-7|
D|x--x--x--x--x--x--x--x--x--x--x--x--|x-x-x-x-x-x-x-x-x-x-x-x|
A|8--8--8--8--8--8--10-10-10-10-10-10-|7-7-7-7-7-7-5-5-5-5-5-5|
E|------------------------------------|-----------------------|

E|------------------------------------|-----------------------------------|
B|------------------------------------|-----------------------------------|
G|10-10-10-10-10-10-12-12-12-12-12-12-|12-12-12-12/15-15-15-15-15-15-15-15|
D|x--x--x--x--x--x--x--x--x--x--x--x--|x--x--x--x-/x--x--x--x--x--x--x--x-|
A|8--8--8--8--8--8--10-10-10-10-10-10-|10-10-10-10/13-13-13-13-13-13-13-13|
E|------------------------------------|-----------------------------------|

Pre-Verse

E|-----------------------------|
B|-----------------------------|
G|10-10-10-10-10-10\7-7-7-7-7-7|
D|x--x--x--x--x--x-\x-x-x-x-x-x|
A|8--8--8--8--8--8-\5-5-5-5-5-5|
E|-----------------------------|

Right at the end he uses a distortion squeal.

Verse 2

E|------------------|-----------------|
B|------------------|-----------------|
G|------------------|-----------------|
D|------------------|-----------------|
A|7-7-7-7-7-7--7--7-|5-5-5-5-5-5--5--5|
E|5-5-5-5-5-5--5--5-|3-3-3-3-3-3--3--3| play 5 times.

E|----------------------------|
B|----------------------------|
G|----------------------------|
D|5--5-5-3--3-3---------------|
A|--------------5--5-5-3--3-3-|
E|----------------------------|

E|------------------|-----------------|
B|------------------|-----------------|
G|------------------|-----------------|
D|------------------|-----------------|
A|7-7-7-7-7-7--7--7-|5-5-5-5-5-5--5--5|
E|5-5-5-5-5-5--5--5-|3-3-3-3-3-3--3--3| play 3 times.

E|----------------------------|
B|----------------------------|
G|----------------------------|
D|5--5-5-3--3-3---------------|
A|--------------5--5-5-3--3-3-|
E|----------------------------|

Chorus

E|------------------------------------|-----------------------|
B|------------------------------------|-----------------------|
G|10-10-10-10-10-10-12-12-12-12-12-12-|9-9-9-9-9-9-7-7-7-7-7-7|
D|x--x--x--x--x--x--x--x--x--x--x--x--|x-x-x-x-x-x-x-x-x-x-x-x|
A|8--8--8--8--8--8--10-10-10-10-10-10-|7-7-7-7-7-7-5-5-5-5-5-5|
E|------------------------------------|-----------------------| play twice

E|----------------------------|---------------------------|
B|----------------------------|---------------------------|
G|----------------------------|---------------------------|
D|5--5-5-3--3-3---------------|5--5-5p3--3-3p0------------|
A|--------------5--5-5-3--3-3-|-----------------5-5p3--3-3|
E|----------------------------|---------------------------|

E|------------------------------------|-----------------------|
B|------------------------------------|-----------------------|
G|10-10-10-10-10-10-12-12-12-12-12-12-|9-9-9-9-9-9-7-7-7-7-7-7|
D|x--x--x--x--x--x--x--x--x--x--x--x--|x-x-x-x-x-x-x-x-x-x-x-x|
A|8--8--8--8--8--8--10-10-10-10-10-10-|7-7-7-7-7-7-5-5-5-5-5-5|
E|------------------------------------|-----------------------| play twice

Bridge

E|----------------------------|-------------------------|
B|----------------------------|-------------------------|
G|----------------------------|-------------------------|
D|----------------------------|-------------------------|
A|-----8------8------8------8-|-----6-----6-----6-----6-|
E|8-10---8-10---8-10---8-10---|-6-8---6-8---6-8---6-8---|

E|------------------------------------|-----------------------------------|
B|------------------------------------|-----------------------------------|
G|10-10-10-10-10-10-12-12-12-12-12-12-|12-12-12-12/15-15-15-15-15-15-15-15|
D|x--x--x--x--x--x--x--x--x--x--x--x--|x--x--x--x-/x--x--x--x--x--x--x--x-|
A|8--8--8--8--8--8--10-10-10-10-10-10-|10-10-10-10/13-13-13-13-13-13-13-13|
E|------------------------------------|-----------------------------------|

E|------------------------------------|---------------------------|
B|------------------------------------|---------------------------|
G|10-10-10-10-10-10-12-12-12-12-12-12-|12-12-12-12\7-7-7-7-7-7-7-7|
D|x--x--x--x--x--x--x--x--x--x--x--x--|x--x--x--x-\x-x-x-x-x-x-x-x|
A|8--8--8--8--8--8--10-10-10-10-10-10-|10-10-10-10\5-5-5-5-5-5-5-5|
E|------------------------------------|---------------------------|

E|--------------------------------------|
B|--------------------------------------|
G|--------------------------------------|
D|--------------------------------------|
A|7-7--7-7--7-7--7-7--7-7--7-7--5-5--5-5|
E|5-5--5-5--5-5--5-5--5-5--5-5--3-3--3-3|

 one playing the chorus and one playing the solo.
I'm them both in.

Guitar 1

E|--------------------------------------------------|
B|--------------------------------------------------|
G|------15----------15----------15-------17v-----15v|
D|15-17----17-15-17----17-15-17----17-15------------|
A|--------------------------------------------------|
E|--------------------------------------------------|

Guitar 2

E|------------------------------------|-----------------------|
B|------------------------------------|-----------------------|
G|10-10-10-10-10-10-12-12-12-12-12-12-|9-9-9-9-9-9-7-7-7-7-7-7|
D|x--x--x--x--x--x--x--x--x--x--x--x--|x-x-x-x-x-x-x-x-x-x-x-x|
A|8--8--8--8--8--8--10-10-10-10-10-10-|7-7-7-7-7-7-5-5-5-5-5-5|
E|------------------------------------|-----------------------|

Guitar 1

E|---------------------------16p15--------------------|
B|---------------------------------17p15--------------|
G|------15-------17b19b17-15-------------17p15h17h15\0|
D|15-17----17-15--------------------------------------|
A|----------------------------------------------------|
E|----------------------------------------------------|

Guitar 2

E|------------------------------------|-----------------------------------|
B|------------------------------------|-----------------------------------|
G|10-10-10-10-10-10-12-12-12-12-12-12-|12-12-12-12/15-15-15-15-15-15-15-15|
D|x--x--x--x--x--x--x--x--x--x--x--x--|x--x--x--x-/x--x--x--x--x--x--x--x-|
A|8--8--8--8--8--8--10-10-10-10-10-10-|10-10-10-10/13-13-13-13-13-13-13-13|
E|------------------------------------|-----------------------------------|

Pre-Chorus

E|----------------------------|---------------------------|
B|----------------------------|---------------------------|
G|----------------------------|---------------------------|
D|5--5-5-3--3-3---------------|5--5-5p3--3-3p0------------|
A|--------------5--5-5-3--3-3-|-----------------5-5p3--3-3|
E|----------------------------|---------------------------|

Chorus

E|------------------------------------|-----------------------|
B|------------------------------------|-----------------------|
G|10-10-10-10-10-10-12-12-12-12-12-12-|9-9-9-9-9-9-7-7-7-7-7-7|
D|x--x--x--x--x--x--x--x--x--x--x--x--|x-x-x-x-x-x-x-x-x-x-x-x|
A|8--8--8--8--8--8--10-10-10-10-10-10-|7-7-7-7-7-7-5-5-5-5-5-5|
E|------------------------------------|-----------------------| play 5 times

E|------------------------------------|-----------------------------------|
B|------------------------------------|-----------------------------------|
G|10-10-10-10-10-10-12-12-12-12-12-12-|12-12-12-12/15-15-15-15-15-15-15-15|
D|x--x--x--x--x--x--x--x--x--x--x--x--|x--x--x--x-/x--x--x--x--x--x--x--x-|
A|8--8--8--8--8--8--10-10-10-10-10-10-|10-10-10-10/13-13-13-13-13-13-13-13|
E|------------------------------------|-----------------------------------|

Coda


E|--------------------------------------|
B|--------------------------------------|
G|10---10---10---10---12---12---12---12-|
D|x----x----x----x----x----x----x----x--|
A|8----8----8----8----10---10---10---10-|
E|--------------------------------------|

E|------------------------------------|-----------------------------------|
B|------------------------------------|-----------------------------------|
G|10-10-10-10-10-10-12-12-12-12-12-12-|12-12-12-12/15-15-15-15-15-15-15-15|
D|x--x--x--x--x--x--x--x--x--x--x--x--|x--x--x--x-/x--x--x--x--x--x--x--x-|
A|8--8--8--8--8--8--10-10-10-10-10-10-|10-10-10-10/13-13-13-13-13-13-13-13|
E|------------------------------------|-----------------------------------|

E|------------------------------------|-----------------------------------|
B|------------------------------------|-----------------------------------|
G|12-12-12-12-12-12-12-12-12-12-12-12-|12-12-12-12/15-15-15-15-15-15-15-15|
D|x--x--x--x--x--x--x--x--x--x--x--x--|x--x--x--x-/x--x--x--x--x--x--x--x-|
A|10-10-10-10-10-10-10-10-10-10-10-10-|10-10-10-10/13-13-13-13-13-13-13-13|
E|------------------------------------|-----------------------------------|

E|-------------------|---|
B|-------------------|---|
G|-------------------|---|
D|-------------------|---|
A|7-7--7-7--7-7--5-5-|7\3|
E|5-5--5-5--5-5--3-3-|5\1|

Hold this last bar for about 10 seconds.
 If i find anything wrong with the tab ill post in comments.
            
Submit corrections


        Gone lessons Hard to play? Try these video lessons and learn fast Gone lessons
        
↑ Back to top | Tablatures and chords for acoustic guitar and electric guitar, ukulele, drums are parodies/interpretations of the original songs. You may use it for private study, scholarship, research or language learning purposes only