Home » B » Buckcherry »

Buckcherry - Lit Up Tabs

Artists:  A B C D E F G H I J K L M N O P Q R S T U V W X Y Z # 

Lit Up Tabs

(ver. 3) Click to play this song!
Buckcherry
Standard tuning

I dont know if the solos are exactly right, but 
no one else on this sight had them in their tabs.
Please submit corrections if you see any, just
makes everyone better!  =)

Intro:
e|-------------------------------------|
B|-------------------------------------|
G|-5-------5-------------------5-5-5-5-|
D|-5-5-5-5-5-5-5-5--3-3-x-3-3--5-5-5-5-|
A|-3-5-5-5-3-5-5-5--3-3-x-3-3--3-3-3-3-|
E|---3-3-3---3-3-3--1-1-x-1-1----------|

Verse:
e|-------------------------------------------|
B|-------------------------------------------|
G|-------------------------------5-5-x-5-5---|
D|-5-5-5-5-x-5-5-5-5-x-3-3-x-3-x-5-5-x-5-5-5-|
A|-5-5-5-5-x-5-5-5-5-x-3-3-x-3-x-3-3-x-3-3-5-|
E|-3-3-3-3-x-3-3-3-3-x-1-1-x-1-x-----------3-|

Chorus:
e|-------------------------------------------------|
B|-------------------------------------------------|
G|-8-8-x-------10-10-x-------8-8-x--------5---5----|
D|-8-8-x-8-8-x-10-10-x-10-10-8-8-x-8-8/-5-5-5-5-5--|
A|-6-6-x-8-8-x-8--8--x-10-10-6-6-x-8-8/-5-3-5-3-5--|
E|-------6-6-x---------8--8--------6-6/-3-3-3-3-3--|

e|--------------------------------|
B|--------------------------------|
G|--5---5---10-10-x-5-5-x---------|
D|5-5-5-5-5-10-10-x-5-5-x-3-3-x-5-|
A|5-5-5-3-5-8--8--x-3-3-x-3-3-x-5-|
E|3-3-3-3-3---------------1-1-x-3-|

SOLO 1:
E|----------------------3----------3------------------------|
B|---------------3----3---6bv-0-6b---6--3-------------------|
G|---3---5---3---3-5b---------0-----------6-5--3-6-3b-------|
D|-5---5---5---5--------------------------------------5-----|
A|----------------------------------------------------------|
E|----------------------------------------------------------|

SOLO 2:  
E|------------------------------3----------------------------------|
B|---------------------------3-----6/8-8~~~~~~~---/18-18--18-------|
G|-------------3------3--5b-----------------------/17-17--17b------|
D|-5~~~~~~~~~-----5------------------------------------------------|
A|-----------------------------------------------------------------|
E|-----------------------------------------------------------------|

E|-----------------------------------------------------------------|
B|-18------18-------18----18---18----------18-18-18\--3/15-15----15|
G|----17HB-----17HB-17HB--17HB-17HB--17hb--17-17-17\--3/15-15-17---|
D|-----------------------------------------------------------------|
A|-----------------------------------------------------------------|
E|-----------------------------------------------------------------|

E|--------------------------------------15-----15----15----15------|
B|--17-15-17--------------------15-18B-----18B----18----18----17---|
G|--17-15-17--17P15----15------------------------------------------|
D|------------------17----17~~~------------------------------------|
A|-----------------------------------------------------------------|
E|-----------------------------------------------------------------|

e|--15----15--------------------------------------------------------|
B|-----18----17--18-18B~~~~~~---------------------------------------|
G|------------------------------------------------------------------|
D|------------------------------------------------------------------|
A|------------------------------------------------------------------|
E|------------------------------------------------------------------|
 
OUTRO SOLO:
e|------------------------------------------------------------------|
B|----------------3-------------------------------------------3-----|
G|---------0------3----5---3---5---3------------------3---5---3-5B--|
D|---------0--3\5----5---5---5---5---5~~~~--5-3-5-3H5---5---5-------|
A|------------3\5---------------------------------------------------|
E|----15\-----------------------------------------------------------|

E|--3------------------------------------------------------------------|
B|--3---------------0-----3---5---3------------------------------------|
G|----5B5P3---------0-----3---5---3----5---3---------3--------3---3-5B-|
D|----------5----------/5---5---5---5----5---5~~~--5---3--3H5---5------|
A|-------------/19\----------------------------------------------------|
E|---------------------------------------------------------------------|

E|---------------------------------------------------------------------|
B|--3-3--6B~~--5-5--6-/8---------8--8~~~~-8----------------------------|
G|----------------  7-/9--10-10-10-10~~~~---9-10~~~~~~~~~~~~~~~~~~-----|
D|---------------------------------------------------------------------|
A|---------------------------------------------------------------------|
E|---------------------------------------------------------------------|

E|---------------------------------------------------------------------|
B|------------------------0---------3---5---3---5---3------------------|
G|-10-10/12-0-12~~-0-12~~-0--12/----3---5---3---5---3------------------|
D|--------------------------------5---5---5---5---5---5~~--3-3--5~~~~--|
A|---------------------------------------------------------------------|
E|---------------------------------------------------------------------|

E|-----------------------------------------------------------------------|
B|--3--3-----3----3-----3--6--6--------6\8~~~~~~~~~~~~~~~~~~~~~~~~~~~----|
G|--3--3-----3----3-5B--------5B--5P3------------------------------------|
D|--------5-----5--------------------------------------------------------|
A|-----------------------------------------------------------------------|
E|-----------------------------------------------------------------------|
            
Submit corrections

↑ Back to top | Tablatures and chords for acoustic guitar and electric guitar, ukulele, drums are parodies/interpretations of the original songs. You may use it for private study, scholarship, research or language learning purposes only