» » »

Breaking Benjamin - Diary Of Jane Tabs

Artists:  A B C D E F G H I J K L M N O P Q R S T U V W X Y Z # 

Diary Of Jane Tabs

(ver. 1) Click to play this song!
Breaking Benjamin
 Rating:
4/5 (4 votes)

 Diary Of Jane lessons Tabs too difficult? Try these video lessons and learn fast
 
                Band: Breaking Benjamin

TUNING: Bb F Bb Eb G C (Drop D and two whole steps down)

Intro
C |-----------------------------------------------------------------------------------------------------|
G |-----10--10---10--10--11------10--10--13--11--10------10--10---10--10--11------10--10--13--11--10----|
Eb|-----------------------------------------------------------------------------------------------------|
Bb|-12----12---12--12--12----12----12--12--12--12----12----12---12--12--12----12----12--12--12--12------|
F |-----------------------------------------------------------------------------------------------------|
Bb|-----------------------------------------------------------------------------------------------------|
repeat, then

C |-----------------------------------------------------------------------------------------------------|
G |-----10--10--13--11--10-------10--10--13--11--10------10--10--13--11--10--------10--10---------------|
Eb|------------------------------------------------------------------------------------------10--10--10-|
Bb|-12----12--12--12--12-----12----12--12--12--12----12----12--12--12--12------12----12--12--10--10--10-|
F |------------------------------------------------------------------------------------------8---8---8--|
Bb|------------------------------------------------------------------------------------------8---8---8--|
                                                                                             *

* - Lead (Guitar 2)
C |------------|
G |-10~--------|
Eb|------------|
~ = bend

Intro (Rhythm/Heavy)
C |----------------------------------------------------------------------------------------------------|
G |----------------------------------------------------------------------------------------------------|
Eb|----------------------------------------------------------------------------------------------------|
Bb|----------------------------------------------------------------------------------------------------|
F |-----------------3---------------------------------3------------------------------------------------|
Bb|-0-0-5p0-0-7h5p0---0-0-8p0-0-3h2---0-0-5p0-0-7h5p0---0-0-8p0-0-3h2----------------------------------|

C |----------------------------------------------------------------------------------------------------|
G |----------------------------------------------------------------------------------------------------|
Eb|---------------------------------------------------5--5--5------------------------------------------|
Bb|---------------------------------------------------3--3--3------------------------------------------|
F |-----------------3---------------------------------1--1--1------------------------------------------|
Bb|-0-0-5p0-0-7h5p0---0-0-8p0-0-3h2---0-0-5p0-0-7h5p0--------------------------------------------------|

Intro (Lead)
C |------------------------------------------------------------------------------------------------------|
G |----10----10----13----11----10-----10----10-------------10----10----13----11----10----10----10--------|
Eb|-----------------------------------------------9~-------------------------------------------------9~--|
Bb|-12----12----12----12----12-----12----12----12-------12----12----12----12----12----12----12----12-----|
F |------------------------------------------------------------------------------------------------------|
Bb|------------------------------------------------------------------------------------------------------|
let last note ring

Verse 1
C |----------------------------------------------------------------------------------------------------|
G |----------------------------------------------------------------------------------------------------|
Eb|----------------------------------------------------------------------------------------------------|
Bb|--------------<5>--------<5>-------------------<5>--------<5>----5----8-----------------------------|
F |0-0*--0*--0-0----<5>-0-0----<5>-0-0*---0000-00----<5>-0-0----<5>-5----8-----------------------------|
Bb|0-0*--0*--0-0--------0-0--------0-0*---0000-00--------0-0--------5----8-----------------------------|
   x x   x   x x        x x        x x    xxxx xx        x x                         x = palm mute
repeat, then:

Chorus
C |----------------------------------------------------------------------------------------------------|
G |----------------------------------------------------------------------------------------------------|
Eb|----------------------------------------------------------------------------------------------------|
Bb|-0------8------3------2------8-------10-------------------------------------------------------------|
F |-0------8------3------3------8-------10-------------------------------------------------------------|
Bb|-0------8------3-------------8-------10-------------------------------------------------------------|
these are the chords used, I'm not going to bother tabbing the strum pattern, use your own judgement

Intro Riff
C |----------------------------------------------------------------------------------------------------|
G |----------------------------------------------------------------------------------------------------|
Eb|---------------------------------------------------5--5--5------------------------------------------|
Bb|---------------------------------------------------3--3--3------------------------------------------|
F |-----------------3---------------------------------1--1--1------------------------------------------|
Bb|-0-0-5p0-0-7h5p0---0-0-8p0-0-3h2---0-0-5p0-0-7h5p0--------------------------------------------------|

Intro Riff (Lead)
C |------------------------------------------------------------------------------------------------------|
G |----10----10----13----11----10-----10----10-------------10----10----13----11----10----10----10--------|
Eb|-----------------------------------------------9~-------------------------------------------------9~--|
Bb|-12----12----12----12----12-----12----12----12-------12----12----12----12----12----12----12----12-----|
F |------------------------------------------------------------------------------------------------------|
Bb|------------------------------------------------------------------------------------------------------|

Verse 2
C |----------------------------------------------------------------------------------------------------|
G |----------------------------------------------------------------------------------------------------|
Eb|----------------------------------------------------------------------------------------------------|
Bb|--------------<5>--------<5>-------------------<5>--------<5>----5----8-----------------------------|
F |0-0*--0*--0-0----<5>-0-0----<5>-0-0*---0000-00----<5>-0-0----<5>-5----8-----------------------------|
Bb|0-0*--0*--0-0--------0-0--------0-0*---0000-00--------0-0--------5----8-----------------------------|
   x x   x   x x        x x        x x    xxxx xx        x x

C |----------------------------------------------------------------------------------------------------|
G |----------------------------------------------------------------------------------------------------|
Eb|----------------------------------------------------------------------------------------------------|
Bb|--------------<5>--------<5>-------------------<5>--------<5>----5-----8*8*-------------------------|
F |0-0*--0*--0-0----<5>-0-0----<5>-0-0*---0000-00----<5>-0-0----<5>-5-----8*8*-------------------------|
Bb|0-0*--0*--0-0--------0-0--------0-0*---0000-00--------0-0--------5-----8*8*-------------------------|
   x x   x   x x        x x        x x    xxxx xx        x x

Chorus
C |----------------------------------------------------------------------------------------------------|
G |----------------------------------------------------------------------------------------------------|
Eb|----------------------------------------------------------------------------------------------------|
Bb|-0------8------3------2------0------8------3------2------8-8*-8-88*-88*-10-10*-10-1010*-1010*-------|
F |-0------8------3------3------0------8------3------3------8-8*-8-88*-88*-10-10*-10-1010*-1010*-------|
Bb|-0------8------3-------------0------8------3-------------8-8*-8-88*-88*-10-10*-10-1010*-1010*-------|

Break
C |----------------------------------------------------------------------------------------------------|
G |----------------------------------------------------------------------------------------------------|
Eb|----------------------------------------------------------------------------------------------------|
Bb|----------------------------------------------------------------------------------------------------|
F |-00-0-000--000-005---00-0-000--0000501---00-0-000--000-005---00-0-------8-7-0-5h7-0-3h2-------------|
Bb|-00-0-000--000-005---00-0-000--0000501---00-0-000--000-005---00-0-------8-7-0-5h7-0-3h2-------------|
    xx x xxx  xxx xx    xx x xxx  xxxx      xx x xxx  xxx xx    xx x
you will have to practice getting the rhythm on time, but I've accented each hit throughout the beat

C |----------------------------------------------------------------------------------------------------|
G |----------------------------------------------------------------------------------------------------|
Eb|----------------------------------------------------------------------------------------------------|
Bb|-3-----5----------------------------------------------3-----5-----8---------------------------------|
F |-3-----5----00-0-000--000-005---00-0-000--0000005-----3-----5-----8---------------------------------|
Bb|-3-----5----00-0-000--000-005---00-0-000--0000005-----3-----5-----8----8h7-3h2----------------------|
               xx x xxx  xxx xx    xx x xxx  xxxxxx

Break (Lead, Guitar 2)
C |-10--12----------------------------10--12-----------------8--10~--------5~--------------------------|
G |---------13---------10--8>-8--7------------13---------10-----13~--------8~--------------------------|
Eb|--------------10h12-------------7---------------10h12-----------------------------------------------|
Bb|----------------------------------------------------------------------------------------------------|
F |----------------------------------------------------------------------------------------------------|
Bb|----------------------------------------------------------------------------------------------------|
                        > = slight harmonic

Chorus
C |----------------------------------------------------------------------------------------------------|
G |----------------------------------------------------------------------------------------------------|
Eb|----------------------------------------------------------------------------------------------------|
Bb|-0------8------3------2-------0------8------3------2------------------------------------------------|
F |-0------8------3------3-------0------8------3------3------------------------------------------------|
Bb|-0------8------3--------------0------8------3-------------------------------------------------------|

Intro Riff
C |----------------------------------------------------------------------------------------------------|
G |----------------------------------------------------------------------------------------------------|
Eb|----------------------------------------------------------------------------------------------------|
Bb|----------------------------------------------------------------------------------------------------|
F |-----------------3---------------------------------3------------------------------------------------|
Bb|-0-0-5p0-0-7h5p0---0-0-8p0-0-3h2---0-0-5p0-0-7h5p0---0-0-8p0-0-3h2----------------------------------|

C |----------------------------------------------------------------------------------------------------|
G |----------------------------------------------------------------------------------------------------|
Eb|---------------------------------------------------5--5--5------------------------------------------|
Bb|---------------------------------------------------3--3--3--0---------------------------------------|
F |-----------------3---------------------------------1--1--1--0---------------------------------------|
Bb|-0-0-5p0-0-7h5p0---0-0-8p0-0-3h2---0-0-5p0-0-7h5p0----------0---------------------------------------|


h  = hammer-on
p  = pick-off
*  = stop/cut short
<> = harmonics
>  = pinch harmonic
~  = bend
x  = palm mute
            
Submit corrections


        Diary Of Jane lessons Hard to play? Try these video lessons and learn fast Diary Of Jane lessons
        
↑ Back to top | Tablatures and chords for acoustic guitar and electric guitar, ukulele, drums are parodies/interpretations of the original songs. You may use it for private study, scholarship, research or language learning purposes only