Home » B » Breaking Benjamin »

Breaking Benjamin - Sugarcoat Bass

Artists:  A B C D E F G H I J K L M N O P Q R S T U V W X Y Z # 

Sugarcoat Bass

(ver. 2) Click to play this song!
Breaking Benjamin
 Rating:
4/5 (4 votes)
                Breaking Benjamin - Sugarcoat

C G C F

Intro/Chorus
F|---------------------------|---------|
C|---------------------------|---------|
G|----------------------4----|-4-------|
C|-3-1h3--3-1h3--3-1h3----4--|---/12/--|

Verse:
F|-------------------------|
C|-------------------------|
G|-1~--4~------------------|
C|----------3~---6~--------|

Solo/Bridge
F|-------------------------|
C|-------------------------|
G|-------------------------|
C|--3~----?? --------------|

End Riff:
F|-------------|----------|-------------|
C|-------------|----------|-------------|
G|-------------|----------|-------------|
C|--1-3---4-3--|--44--22--|-444-222-3~--|
            
Submit corrections

↑ Back to top | Tablatures and chords for acoustic guitar and electric guitar, ukulele, drums are parodies/interpretations of the original songs. You may use it for private study, scholarship, research or language learning purposes only