Home » B » Breaking Benjamin »

Breaking Benjamin - Had Enough Bass

Artists:  A B C D E F G H I J K L M N O P Q R S T U V W X Y Z # 

Had Enough Bass

(ver. 3) Click to play this song!
Breaking Benjamin
 Rating:
4/5 (4 votes)
                Intro 1
G |-------------------|
D |-------------------|
A |-------------------| 
D |-2--2-2-0-2--2-2-0-|  

Intro 2
G|--------|
D|--------|
A|--------| 
D|5-4-4-0-| 
 
Verse
G|----------------------------------|	
D|----------------------------------|
A|77777777-7-10---------------------|
D|--------------10101010101010-10-9-|

Chorus
G|--------------------------------------------------|
D|--------------------------------------------------|
A|--------------------------------------------------|
D|-22222222-----999999999----1010-------10101010----|

G|----------------------|
D|----------------------|
A|----------------------|
D|555555—999999----0000-|


Bridge
G|------------------------|
D|------------------------|
A|------------------------|
D|-2----9----10----5----4-|


SONG ORDER:

Intro 1 x2
Intro 2 x2
Verse x2
Chorus
Intro 1 x2
Intro 2 x2
Verse x2
Chorus
Bridge x5
Chorus
Intro 1 x2
Intro 2 x2
Intro 1 x2
Intro 2 x2
            
Submit corrections

↑ Back to top | Tablatures and chords for acoustic guitar and electric guitar, ukulele, drums are parodies/interpretations of the original songs. You may use it for private study, scholarship, research or language learning purposes only