» » »

Breaking Benjamin - Follow Tabs

Artists:  A B C D E F G H I J K L M N O P Q R S T U V W X Y Z # 

Follow Tabs

(ver. 4) Click to play this song!
Breaking Benjamin
 Rating:
4.3/5 (18 votes)

 Follow lessons Tabs too difficult? Try these video lessons and learn fast
 
                Intro - Guitar 1
|----------------------------------------------|
|----------------------------------------------|
|----------------------------------------------|
|----------------------------------------------|
|-0-3-0-3--5-5-5-5-xx-0-3-0-8--5-5-5-5-xx------|
|-0-3-0-3--5-5-5-5-xx-0-3-0-8--5-5-5-5-xx------|

Add 2nd Guitar
|-----------------------------------------------------|
|-----------------------------------------------------|
|-----------------------------------------------------|
|-----------------------------------------------------|
|-0-3-0-3--5-5-5-5-xx-0-3-0-8--5-5-5-x0-x3-3--5-5-5-5-|
|-0-3-0-3--5-5-5-5-xx-0-3-0-8--5-5-5-x0-x3-3--5-5-5-5-|

|-------------------------------------------------|
|-------------------------------------------------|
|-------------------------------------------------|
|-------------------------------------------------|
|--xx-0-3-0-8--5-5-5-5-xx-0-3-0-3--5-5-5-5-xx-----|
|--xx-0-3-0-8--5-5-5-5-xx-0-3-0-3--5-5-5-5-xx-----|

|-------------------------------------------|
|-------------------------------------------|
|-------------------------------------------|
|-------------------------------------------|
|--0-3-0-8--5-5-5-5-x0-x3-------------------|
|--0-3-0-8--5-5-5-5-x0-x3-------------------|

Verse 1 - Guitar 1
|-----------------------------|
|-----------------------------|
|-----------------------------|
|-8~-8-8--7-7--5-5-5-5-5-5-7--| 
|-5~-5-5--3-3--1-1-1-1-1-1-3--|
|-5~-5-5--3-3--1-1-1-1-1-1-3--|

|-----------------------------|
|-----------------------------|
|-----------------------------|
|-8~-8-8--7-7--5-5-5-5-5-5-7--|
|-5~-5-5--3-3--1-1-1-1-1-1-3--|
|-5~-5-5--3-3--1-1-1-1-1-1-3--|

|--------------------------------------|
|--------------------------------------|
|--------------------------------------|    (The number of notes is probably off,
|--------------------------------------|    so you’ll have to learn the timing yourself.)
|--------------------------------------|
|-555555553333333311111111111111113333-|    x3
P.M ******************************
|----------------|
|----------------|
|----------------|    
|----------------|   
|-1-1-1-1-1-1-1--|
|-1-1-1-1-1-1-1--|

Verse 1 - Guitar 2
|-10~-10-10--8--8---6-6-6-6-6-6-8------|    
|-10~-10-10--8--8---6-6-6-6-6-6-8------|   
|-12~-12-12--10-10--8-8-8-8-8-8-10-----|
|-12~-12-12--10-10--8-8-8-8-8-8-10-----|
|-10~-10-10--8--8---6-6-6-6-6-6-8------|    
|--------------------------------------|   

|-10~-10-10--8--8--6-6-6-6-6-6-8------|    
|-10~-10-10--8--8--6-6-6-6-6-6-8------|   
|-12~-12-12--10-10-8-8-8-8-8-8-10-----|
|-12~-12-12--10-10-8-8-8-8-8-8-10-----|
|-10~-10-10--8--8--6-6-6-6-6-6-8------|    
|-------------------------------------|

|----------------------------6-6-----------8-8-8-8--------|
|----------------------------6-6-----------8-8-8-8--------|
|----------------------------8-8-----------10101010-------|    
|----------------------------8-8-----------10101010-------|   
|-1010101010101010888888886666-6-66666666--8-8-8-8--------|   x2
|---------------------------------------------------------|
P.M.*************************    ********       

You’ll have to listen for timing. I added the lyric for the full chords to help.
|-------------------8----------6---------------------------|
|-------------------8----------6---------------------------|
|-------------------10---------8-------------8-8-8-8-8-----|    
|-------------------10---------8-------------8-8-8-8-8-----|  
|--1010101010101010–8-88888888-6-66666666888-6-6-6-6-6-----|
|----------------------------------------------------------|
P.M.***********************       *******        
                  …walk…     …down…         …go…

Chorus
|------------------|
|------------------|
|-----------7------|    (Listen for the timing and strum pattern,
|--3-----8--8------|    I’m not tabbing that.)
|--1--3--5--6------|
|-----3--5---------|

|---------------------------|
|---------------------------|
|-----------7-7-xxx-7-7-----|   
|--3-----8--8-8-xxx-8-8-----|  
|--1--3--5--6-6-xxx-6-6-----|
|-----3--5------------------|

Intro
|----------------------------------------------|
|----------------------------------------------|
|----------------------------------------------|
|----------------------------------------------|
|-0-3-0-3--5-5-5-5-xx-0-3-0-8--5-5-5-5-xx------|
|-0-3-0-3--5-5-5-5-xx-0-3-0-8--5-5-5-5-xx------|

|----------------------------------------------|
|----------------------------------------------|
|----------------------------------------------|
|----------------------------------------------|
|-0-3-0-3--5-5-5-5-xx-0-3-0-8--5-5-5-5-x0-x3---|
|-0-3-0-3--5-5-5-5-xx-0-3-0-8--5-5-5-5-x0-x3---|

Verse 2 - Guitar 1
|--------------------------------|
|--------------------------------|
|--------------------------------|
|-8~-8-8--7-7--5-5-5-5-5-5-7--8~-| 
|-5~-5-5--3-3--1-1-1-1-1-1-3--5~-|
|-5~-5-5--3-3--1-1-1-1-1-1-3--5~-|

|------------------------------|
|------------------------------|
|------------------------------|
|-8–88--7–77--5-55-5-5-5-5-7---|
|-5–55--3–33--1-11-1-1-1-5-3---|
|-5–55--3–33--1-11-1-1-1-1-3---|

|--------------------------------------|
|--------------------------------------|
|--------------------------------------|    (The number of notes is probably off,
|--------------------------------------|    so you’ll have to learn the timing yourself.)
|--------------------------------------|
|-55555555333333331111111111111113333--|    x3
P.M *****************************

|----------------|
|----------------|
|----------------|    
|----------------|   
|-1-1-1-1-1-1-1--|
|-1-1-1-1-1-1-1--|

Verse 2 - Guitar 2
|-10~-10-10--8--8---6-6-6-6-6-6-8-----|    
|-10~-10-10--8--8---6-6-6-6-6-6-8-----|   
|-12~-12-12--10-10--8-8-8-8-8-8-10----|
|-12~-12-12--10-10--8-8-8-8-8-8-10----|
|-10~-10-10--8--8---6-6-6-6-6-6-8-----|    
|-------------------------------------|   

|-10~-10-10--8--8---6-6-6-6-6-6-8-----|    
|-10~-10-10--8--8---6-6-6-6-6-6-8-----|   
|-12~-12-12--10-10--8-8-8-8-8-8-10----|
|-12~-12-12--10-10--8-8-8-8-8-8-10----|
|-10~-10-10--8--8---6-6-6-6-6-6-8-----|    
|-------------------------------------|

|----------------------------6-6-----------8–8–8–8--------|
|----------------------------6-6-----------8–8–8–8--------|
|----------------------------8-8-----------10101010-------|    
|----------------------------8-8-----------10101010-------|   
|-1010101010101010888888886666-6-66666666--88–8–8---------|   x2
|---------------------------------------------------------|
P.M.*************************    ********  

|-10~--8~--6~--8--8--8---6-6-6-6-6-6-6---|
|-10~--8~--6~--8--8--8---6-6-6-6-6-6-6---|
|-12~--10~-8~--10-10-10--8-8-8-8-8-8-8---|    
|-12~--10~-8~--10-10-10--8-8-8-8-8-8-8---| 
|-10~--8~--6~--8--8--8---6-6-6-6-6-6-6---|
|----------------------------------------|    

Chorus
|---------------------|
|---------------------|
|-----------7---------|    (Again, listen for the timing and strum pattern…)
|--3-----8--8---------|  
|--1--3--5--6---------|
|-----3--5------------|

|--------------------------------|
|--------------------------------|
|-----------7-7-xxx-7-7--xxxx----|   
|--3-----8--8-8-xxx-8-8--xxxx----|  
|--1--3--5--6-6-xxx-6-6--xxxx----|
|-----3--5-----------------------|

Bridge - Both Guitars

|-----------------------------------|
|-----------------------------------|
|-----------------------------------|    
|-----------------------------------|   
|-6-5-3-1-0-1-----------------------|
|-6-5-3-1-0-1-5555555500000000------|

|-----------------------------------|
|-----------------------------------|
|-----------------------------------|    
|-----------------------------------|   
|-6-5-3-1-0-1-----------------------|
|-6-5-3-1-0-1-5555555555553355------|      

Guitar 1 only
|-----------------------------------|
|-----------------------------------|
|-----------------------------------|    
|-----------------------------------|   
|-6-5-3-1-0-1-----------------------|
|-6-5-3-1-0-1-5555555500000000------|


|-------------------------------------|
|-------------------------------------|
|-------------------------------------|    
|-------------------------------------|   
|-6-5-3-1-0-1-------------------8\----|
|-6-5-3-1-0-1-5555555555555555--8\----|     
                                slide down
Bridge - Guitar 2 play at same time as Guitar 1's bridge
|------------------------------------------------------------------------------|
|------------------------------------------------------------------------------|
|-13-13-13-12-12-12-101010-8-8-8-7-8-12-12-12-12-12-12-12-12-7-7-7-7-7-7-7-7---|  
|------------------------------------------------------------------------------|
|-11-11-11-10-10-10-8-8-8--6-6-6-5-6-10-10-10-10-10-10-10-10-5-5-5-5-5-5-5-5---|
|------------------------------------------------------------------------------|  

|----------------------------------------------------------------------------------|
|----------------------------------------------------------------------------------|
|13-13-13-12-12-12-101010-8-8-8-7-8-12-12-12-12-12-12-12-12-12-12-12-12-12-12-12-12|  
|----------------------------------------------------------------------------------|
|11-11-11-10-10-10-8-8-8--6-6-6-5-6-10-10-10-10-10-10-10-10-10-10-10-10-10-10-10-10|
|----------------------------------------------------------------------------------|

|--------|
|--------|
|-15\----|
|--------|
|-13\----|
|--------|
  slide down

Final Chorus - Both Guitars
|--------------------|
|--------------------|
|-----------7--------|   
|--------8--8--------|  
|----3/--5--6--------|
|----3/--5-----------|
    slide up

|-------------------|
|-------------------|
|-----------7-------|      (…listen for the timing…)
|--3-----8--8-------|     
|--1--3--5--6-------|
|-----3--5----------|   x2

Guitar 2 Fill
|----------------------------------------------------------|
|----------------------------------------------------------|
|-17-17-17-19-19-19-19-19-19-19-19-20-20-20-20-20-20-20-20-| 
|----------------------------------------------------------|
|-15-15-15-17-17-17-17-17-17-17-17-18-18-18-18-18-18-18-18-|
|----------------------------------------------------------|

|-----------------------------------|
|-----------------------------------|
|-20-19-19-19-19-19-19-19-19-19-----|
|-----------------------------------|
|-18-17-17-17-17-17-17-17-17-17-----|
|-----------------------------------|

Both Guitars
|----------------------------|
|----------------------------|
|-----------7-7-xxx-7-7------|   
|--3-----8--8-8-xxx-8-8------|  
|--1--3--5--6-6-xxx-6-6------|
|-----3--5-------------------|


Outro - Both Guitars
|--------------------------------------------|
|--------------------------------------------|
|--------------------------------------------|
|--------------------------------------------|
|-0-3-0-3-5-x-x3-5-x-x3-5-x-x3-5-650-3-5-----|
|-0-3-0-3-5-x-x3-5-x-x3-5-x-x3-5-650-3-5-----|

|----------------------------------|
|----------------------------------|
|----------------------------------|
|----------------------------------|
|-x-x3-5-xxx3-5-x-x3-5-650-3-5-----|
|-x-x3-5-xxx3-5-x-x3-5-650-3-5-----|            
Submit corrections


        Follow lessons Hard to play? Try these video lessons and learn fast Follow lessons
        
↑ Back to top | Tablatures and chords for acoustic guitar and electric guitar, ukulele, drums are parodies/interpretations of the original songs. You may use it for private study, scholarship, research or language learning purposes only