» » »

Breaking Benjamin - Breath Tabs

Artists:  A B C D E F G H I J K L M N O P Q R S T U V W X Y Z # 

Breath Tabs

(ver. 8) Click to play this song!
Breaking Benjamin
 Rating:
4.3/5 (10 votes)

 Breath lessons Tabs too difficult? Try these video lessons and learn fast
 
                [Intro]
e|-----------------|------------------|
B|-----------------|------------------|
G|-----------------|------------------|
D|-5-5-5-5---5-5-6-|--5-5-5-5---5-5-6-|
A|-3-3-3-3---3-3-3-|--3-3-3-3---3-3-3-|
E|-1-1-1-1---1-1-1-|--1-1-1-1---1-1-1-|

e|--11---------------------|--11---------------------|
B|-----13-11-h13-h14-14-13-|-----13-11-h13-h14-14-13-|
G|-------------------------|-------------------------|
D|-------------------------|-------------------------|
A|-------------------------|-------------------------|
E|-------------------------|-------------------------|

e|-15----16-15----|-15----16-15----|
B|----16-------16-|----16-------16-|
G|----------------|----------------|
D|----------------|----------------|
A|----------------|----------------|
E|----------------|----------------|

e|---------------------------------|
B|---------------------------------|
G|--13----17--15--8---12---10------|
D|---------------------------------|
A|---------------------------------|
E|---------------------------------|
***            
Submit corrections


        Breath lessons Hard to play? Try these video lessons and learn fast Breath lessons
        
↑ Back to top | Tablatures and chords for acoustic guitar and electric guitar, ukulele, drums are parodies/interpretations of the original songs. You may use it for private study, scholarship, research or language learning purposes only