» » »

Brantley Gilbert - More Than Miles Tabs

Artists:  A B C D E F G H I J K L M N O P Q R S T U V W X Y Z # 

More Than Miles Tabs

(ver. 2) Click to play this song!
Brantley Gilbert
 Rating:
4.3/5 (20 votes)

 More Than Miles lessons Tabs too difficult? Try these video lessons and learn fast
 
                e|------------------------------------6-----------------------------|
B|-------------------------6--8--8b10---8b10--6--8--6---------------|
G|--------------------5--7------------------------------------------|
D|--------------5--7------------------------------------------------|
A|---------5--8-----------------------------------------------------|
E|-3--5--8----------------------------------------------------------|

e|-8------------------13--12b13----13--15b17-(x5)--15--13--17--18b20-|
B|---10-10--13b15--13-----------13-----------------------------------|
G|-------------------------------------------------------------------|
D|-------------------------------------------------------------------|
A|-------------------------------------------------------------------|
E|-------------------------------------------------------------------|

e|-18--17---18b20---------------------------------------------------|
B|------------------------------------------------------------------|
G|------------------------------------------------------------------|
D|------------------------------------------------------------------|
A|------------------------------------------------------------------|
E|------------------------------------------------------------------|            
Submit corrections


        More Than Miles lessons Hard to play? Try these video lessons and learn fast More Than Miles lessons
        
↑ Back to top | Tablatures and chords for acoustic guitar and electric guitar, ukulele, drums are parodies/interpretations of the original songs. You may use it for private study, scholarship, research or language learning purposes only