» » »

Brad Paisley - Two People Fell In Love Tabs

Artists:  A B C D E F G H I J K L M N O P Q R S T U V W X Y Z # 

Two People Fell In Love Tabs

(ver. 1) Click to play this song!
Brad Paisley
 Rating:
4/5 (4 votes)

 Two People Fell In Love lessons Tabs too difficult? Try these video lessons and learn fast
 
                Brad Paisley - Two People Fell In Love (intro)



***********************************************************************

h   =   hammer-on 

***********************************************************************

   C        F       Am     G          C         F        Am
  
E----------------------------------------------------3----------
D----1-----1----1------1--0-------------1------1---1-1------1--
G--0--------0h2-2------2---0-------0--0---------0h2----2----2---
D-0h2-0h2--3-----3---2----0------0---0h2--0h2--3----------2----
A--3-----------------0---------0h2----3----3--------------0-----
E--------------------------3--3---------------------------------

   G          C

E-----------------|
D-0--------------|
G--0-------0------|
D-0------0-------|
A------0h2----3---|
E--3--3-----------| 
            
Submit corrections


        Two People Fell In Love lessons Hard to play? Try these video lessons and learn fast Two People Fell In Love lessons
        
↑ Back to top | Tablatures and chords for acoustic guitar and electric guitar, ukulele, drums are parodies/interpretations of the original songs. You may use it for private study, scholarship, research or language learning purposes only