Home » B » Box Car Racer »

Box Car Racer - End With You Tabs

Artists:  A B C D E F G H I J K L M N O P Q R S T U V W X Y Z # 

End With You Tabs

(ver. 1) Click to play this song!
Box Car Racer
Boxcar Racer 
The End with you

|---------------------------------------------------
|---------------------------------------------------
|-6-6-6-6-6-6-6-6-6-6-6-6-6-6-6-6-6-6-6------------
|-x-x-x-x-x-x-x-x-x-x-x-x-x-x-x-x-x-x-x------------
|-4-4-4-4-4-4-4-4-4-4-4-4-4-4-4-4-4-4-4------------
|---------------------------------------------------
"What’s it for?"…
|---------------------------------------------
|---------------------------------------------
|---------------------------6-----------------
|-4-4-4--6-7-7-7-7-7-7-6-7--6-----------------
|-4-4-4--6-7-7-7-7-7-7-6-7--4-----------------
|-2-2-2--4-5-5-5-5-5-5-4-5--------------------

Been up all night long…
|---------------------------------
|---------------------------------
|---------------------------------
|---------------------------------
|-----5-5-------------------------
|-2-2-----2-2--5-5-5-5-5----------
p.m.. . . . . . . . . . . .
And I.. Want her kneed her.
|----------------------------------------------
|----------4-4-4-4-----------------------------
|-2-2-2-2--4-4-4-4-----------------------------
|-2-2-2-2--2-2-2-2-4-4-4-4---6-6-6-6-6---------
|-0-0-0-0----------4-4-4-4---6-6-6-6-6---------
|------------------2-2-2-2---4-4-4-4-4---------

|---------------------------------------------
|---------------------------------------------
|---------------------------6-----------------
|-4-4-4--6-7-7-7-7-7-7-6-7--6-----------------
|-4-4-4--6-7-7-7-7-7-7-6-7--4-----------------
|-2-2-2--4-5-5-5-5-5-5-4-5--------------------


|---------------------------------
|---------------------------------
|---------------------------------
|---------------------------------
|-----5-5-------------------------
|-2-2-----2-2--5-5-5-5-5----------

if you will then…
|--------------------------------------------
|--------------------------------------------
|-2-2-2-2--2-2-2-2--------------7-7----------
|-2-2-2-2--2-2-2-2-----4-4-4-4--7-7----------
|-0-0-0-0--x-x-x-x-----4-4-4-4--5-5----------
|----------4-4-4-4-----2-2-2-2---------------

|--------------------------------
|--------------------------------
|--------------------------------
|-7-7-7-8-9----9-9-9-8-7---------
|-x-x-x-x-x----x-x-x-x-x---------
|-5-5-5-6-7----7-7-7-6-5---------

|--------------------------------------------------
|--------------------------------------------------
|-6-6-6-6-6-6-6-6-6-6-6-6-6-6-6-6-6-6-6------------
|-x-x-x-x-x-x-x-x-x-x-x-x-x-x-x-x-x-x-x------------
|-4-4-4-4-4-4-4-4-4-4-4-4-4-4-4-4-4-4-4------------
|--------------------------------------------------

"What’s it for?"…
            
Submit corrections

↑ Back to top | Tablatures and chords for acoustic guitar and electric guitar, ukulele, drums are parodies/interpretations of the original songs. You may use it for private study, scholarship, research or language learning purposes only