Home » B » Box Car Racer »

Box Car Racer - My First Punk Song Tabs

Artists:  A B C D E F G H I J K L M N O P Q R S T U V W X Y Z # 

My First Punk Song Tabs

(ver. 3) Click to play this song!
Box Car Racer
Intro

   			first part
e|--------------------------------------------------------|
B|--------------------------------------------------------|
G|--------------------------------------------------------|
D|----------66----77--------------------------------------|
A|-77777777-44-66-55--------------------------------------|
E|-55555555----44-----------------------------------------|
			Second part
e|--------------------------------------------------------|
B|--------------------------------------------------------|
G|--------------------------------------------------------|
D|----------22--------------------------------------------|
A|-22222222-00-22-66--------------------------------------|
E|-00000000----00-44--------------------------------------|

e|--------------------------------------------------------|
B|--------------------------------------------------------|
G|--------------------------------------------------------|
D|--------------------------------------------------------|
A|-77777777-1111-66-12---7--------------------------------|
E|-55555555-9-9--44-10---5--------------------------------|

                           Third part
e|--------------------------------------------------------|
B|--------------------------------------------------------|
G|--------------------------------------------------------|
D|--------------------------------------------------------|
A|-22222222222222222222222222222222-----------------------|
E|-00000000000000000000000000000000-----------------------|





Second part x4
First part x2
Third part x1
First part x2
Third part x1
end on A|7
       E|5
            
Submit corrections

↑ Back to top | Tablatures and chords for acoustic guitar and electric guitar, ukulele, drums are parodies/interpretations of the original songs. You may use it for private study, scholarship, research or language learning purposes only