Home » B » Box Car Racer »

Box Car Racer - Cat Like Theif Tabs

Artists:  A B C D E F G H I J K L M N O P Q R S T U V W X Y Z # 

Cat Like Theif Tabs

(ver. 2) Click to play this song!
Box Car Racer


Wait for the drumming to repeat 4 times then play!


Intro
e|-------------------------------------------------
B|-------------------------------------------------
G|-------------------------------------------------
D|-----7-----7-----7-----7-----7-----7-----7-----7-  x2
A|-0-0---0-0---4-4---4-4---5-5---5-5---5-5---5-5---
E|-------------------------------------------------

Verse
e|-------------------------------------------------
B|-------------------------------------------------
G|-------------------------------------------------
D|-----7-----7-----7-----7-----7-----7-----7-----7-  x8
A|-0-0---0-0---4-4---4-4---5-5---5-5---5-5---5-5---
E|-------------------------------------------------  

Chorus
e|-------------------------------------------------
B|-------------------------------------------------
G|-------------------------------------------------
D|-----7-----7-----7-----7-----7-----7-----7-----7-
A|-0-0---0-0---5-5---5-5---7-7---7-7---7-7---7-7---
E|-------------------------------------------------

e|-------------------------------------------------
B|-------------------------------------------------
G|-------------------------------------------------
D|-----7-----7-----7-----7-----7-----7-----7-----7-
A|-0-0---0-0---5-5---5-5---4-4---4-4---------------
E|-------------------------------------7-7---7-7---

Intro
e|-------------------------------------------------
B|-------------------------------------------------
G|-------------------------------------------------
D|-----7-----7-----7-----7-----7-----7-----7-----7-  x2
A|-0-0---0-0---4-4---4-4---5-5---5-5---5-5---5-5---
E|-------------------------------------------------

Verse
e|-------------------------------------------------
B|-------------------------------------------------
G|-------------------------------------------------
D|-----7-----7-----7-----7-----7-----7-----7-----7-  x10
A|-0-0---0-0---4-4---4-4---5-5---5-5---5-5---5-5---
E|-------------------------------------------------

Chorus
e|-------------------------------------------------
B|-------------------------------------------------
G|-------------------------------------------------
D|-----7-----7-----7-----7-----7-----7-----7-----7-
A|-0-0---0-0---5-5---5-5---7-7---7-7---7-7---7-7---
E|-------------------------------------------------

e|-------------------------------------------------
B|-------------------------------------------------
G|-------------------------------------------------
D|-----7-----7-----7-----7-----7-----7-----7-----7-  x4
A|-0-0---0-0---5-5---5-5---4-4---4-4---------------
E|-------------------------------------7-7---7-7---

Outro                  						  
e|-------12-------12-------------------------------     
B|-------------------14----14----14----14----------      
G|-14-14----14-14-------14----14----14----14--(14)-      
D|-------------------------------------------------  x8    
A|-------------------------------------------------      
E|------------------------------------------------- 


Play the Chorus twice more and play the Outro over it!

Well that’s it! BYE! ADIOS!
            
Submit corrections

↑ Back to top | Tablatures and chords for acoustic guitar and electric guitar, ukulele, drums are parodies/interpretations of the original songs. You may use it for private study, scholarship, research or language learning purposes only