Home » B » Box Car Racer »

Box Car Racer - All Systems Go Bass

Artists:  A B C D E F G H I J K L M N O P Q R S T U V W X Y Z # 

All Systems Go Bass

(ver. 1) Click to play this song!
Box Car Racer
Instrumental Part
G:---------------------------------
D:-0-0-0-4-4-4---------------------
A:-------------4-4-4-5-5-5-4-4-0-0-
E:---------------------------------

Verses (play it in the last part of the verses)
G:---------------
D:---------------
A:-0-4-0---------
E:-----------4-0-

Chorus
G:---------------------------------------------------------------------
D:---------------------------------------------------------------------
A:-3-3-3-3-3-3-3-3-2-2-2-2-2-2-2-2-0-0-0-0-0-0-0-0---------------------
E:-------------------------------------------------1-1-1-1-1-1-1-1-1-1-

Bridge
G:------------------------------------------------------------------
D:------------------------------------------------------------------
A:-0-0-0-0-0-0-0-0-0-0-0-0-0-0-0-0----------------------------------
E:---------------------------------0-*0-0-0-0-0-0-0-0-0-0-0-0-0-0-0-
(don't play after the star the last time)
            
Submit corrections

↑ Back to top | Tablatures and chords for acoustic guitar and electric guitar, ukulele, drums are parodies/interpretations of the original songs. You may use it for private study, scholarship, research or language learning purposes only