» » »

Bowling For Soup - Val Kilmer Tabs

Artists:  A B C D E F G H I J K L M N O P Q R S T U V W X Y Z # 

Val Kilmer Tabs

(ver. 2) Click to play this song!
Bowling For Soup
 Rating:
4/5 (4 votes)

 Val Kilmer lessons Tabs too difficult? Try these video lessons and learn fast
 
                This Is Just The Acoustic Stuff...

Band: Bowling For Soup

Standard Tuning

Low To High (E-A-D-G-B-E-)

Verse: 2x

[-----------------][-----------------]
[-----------------][-----------------]
[-----------------][-----------------]
[-5-5-5-5-5-5-5-5-][-----------------]
[-3-3-3-3-3-3-3-3-][-5-5-5-5-5-5-5-5-]
[-----------------][-3-3-3-3-3-3-3-3-]

[-----------------][-----------------]
[-----------------][-----------------]
[-----------------][-----------------]
[-----------------][-----------------]
[-3-3-3-3-3-3-3-3-][-5-5-5-5-5-5-5-5-]
[-1-1-1-1-1-1-1-1-][-3-3-3-3-3-3-3-3-]

Verse Part 2: 2x

[-----------------][-----------------]
[-----------------][-----------------]
[-----------------][-----------------]
[-----------------][-----------------]
[-3-3-3-3-3-3-3-3-][-5-5-5-5-5-5-5-5-]
[-1-1-1-1-1-1-1-1-][-3-3-3-3-3-3-3-3-]

Pre Chorus: 1x

[---][---][---][---]
[---][---][---][---]
[-5-][---][---][---]
[-5-][-5-][-3-][-5-]
[-3-][-2-][-3-][-5-]
[---][-0-][-1-][-3-]

Chorus: 2x

[-----------------][-----------------]
[-----------------][-----------------]
[-----------------][-----------------]
[-5-5-5-5-5-5-5-5-][-----------------]
[-3-3-3-3-3-3-3-3-][-5-5-5-5-5-5-5-5-]
[-----------------][-3-3-3-3-3-3-3-3-]

[-----------------][-----------------]
[-----------------][-----------------]
[-----------------][-----------------]
[-----------------][-----------------]
[-3-3-3-3-3-3-3-3-][-5-5-5-5-5-5-5-5-]
[-1-1-1-1-1-1-1-1-][-3-3-3-3-3-3-3-3-]

Chorus Part 2: 2x

[-----------------][-----------------]
[-----------------][-----------------]
[-----------------][-----------------]
[-----------------][-----------------]
[-3-3-3-3-3-3-3-3-][-5-5-5-5-5-5-5-5-]
[-1-1-1-1-1-1-1-1-][-3-3-3-3-3-3-3-3-]


Yeah... I Don't Know How Right It Is But Whatever :P
            
Submit corrections


        Val Kilmer lessons Hard to play? Try these video lessons and learn fast Val Kilmer lessons
        
↑ Back to top | Tablatures and chords for acoustic guitar and electric guitar, ukulele, drums are parodies/interpretations of the original songs. You may use it for private study, scholarship, research or language learning purposes only