» » »

Bowling For Soup - Val Kilmer Tabs

Artists:  A B C D E F G H I J K L M N O P Q R S T U V W X Y Z # 

Val Kilmer Tabs

(ver. 1) Click to play this song!
Bowling For Soup
 Rating:
4/5 (4 votes)

 Val Kilmer lessons Tabs too difficult? Try these video lessons and learn fast
 
                listen to the song to fingure out each part. such a simple song~

verse
|---------|---------|---------|
|---------|---------|---------|
|-5-------|---------|-----7---|
|-5-5-3-5-|-3-5-3-5-|-3-2-7-5-|
|-3-5-3-5-|-3-5-3-5-|-3-2-5-5-|
|---3-1-3-|-1-3-1-3-|-1-0---3-|

chorus
|---------|---------|
|---------|---------|
|-5-------|---------|
|-5-5-3-5-|-3-5-3-5-|
|-3-5-3-5-|-3-5-3-5-|
|---3-1-3-|-1-3-1-3-|

bridge
|---------|
|---------|
|---------|
|-7-5-3-3-|
|-7-5-3-3-|
|-5-3-1-1-|

|------------------|
|------------------|
|-7-------7--------|
|-7-2-3-3-7-2-5-5--|
|-5-2-3-3-5-2-5-5--|
|---0-1-1---0-3-3--|
            
Submit corrections


        Val Kilmer lessons Hard to play? Try these video lessons and learn fast Val Kilmer lessons
        
↑ Back to top | Tablatures and chords for acoustic guitar and electric guitar, ukulele, drums are parodies/interpretations of the original songs. You may use it for private study, scholarship, research or language learning purposes only