» » »

Bowling For Soup - High School Never Ends Tabs

Artists:  A B C D E F G H I J K L M N O P Q R S T U V W X Y Z # 

High School Never Ends Tabs

(ver. 3) Click to play this song!
Bowling For Soup
 Rating:
4/5 (4 votes)

 High School Never Ends lessons Tabs too difficult? Try these video lessons and learn fast
 
                ----------------------------------------------------------------------------
         High School Never Ends - Bowling for Soup     
----------------------------------------------------------------------------

Tuning:Dropped-D
Hey this is my first tab so go easy on the criticism please.
Main Riff
e|-------------------------------------------------------------------------|
B|-------------------------------------------------------------------------|
G|------6-6----6-6---------------------------------------------------------|
D|-6-66-6-6-66-6-6-66-1-1-66-----------------------------------------------|
A|-6-66-4-4-66-4-4-66-1-1-66-----------------------------------------------|
D|-6-66-----66-----66-1-1-66-----------------------------------------------|
Intro
e|-------------------------------------------------------------------------|
B|-------------------------------------------------------------------------|
G|----------------------------6-6----6-6-----------------------------------|
D|-x--xx-x-x-xx----------6-66-6-6-66-6-6-66-1-1-66-------------------------|
A|-x--xx-x-x-xx---|2x|---6-66-4-4-66-4-4-66-1-1-66---|2x|------------------|
D|-x--xx-x-x-xx----------6-66-----66-----66-1-1-66-------------------------|
Verse
e|-------------------------------------------------------------------------|
B|-----------------------------------------------------xxxxxxxxxxxxx-------|
G|---xxxxxxxxxxxxx---xxxxxxxxxxxxx----xxxxxxxxxxxxx--6-6666666666666-------|
D|-6-6666666666666-3-3333333333333--4-4444444444444--6-6666666666666-------|
A|-6-6666666666666-3-3333333333333--4-4444444444444--4-4444444444444-------|
D|-6-6666666666666-3-3333333333333--4-4444444444444------------------------|

e|-------------------------------------------------------------------------|
B|-------------------------------------------------------------------------|
G|---xxxxxxxxxxxxx---xxxxxxxxxxxxx----xxxxxxxxxxxxx--6-6666666666666-------|
D|-6-6666666666666-3-3333333333333--4-4444444444444--6-6666666666666-------|
A|-6-6666666666666-3-3333333333333--4-4444444444444--4-4444444444444-------|
D|-6-6666666666666-3-3333333333333--4-4444444444444------------------------|
Chorus
e|-------------------------------------------------------------------------|
B|-------------------------------------------------------------------------|
G|------6-6----6-6----------------6666666688888888666666668888888866666666-|
D|-6-66-6-6-66-6-6-66-1-1-66------6666666688888888666666668888888866666666-|
A|-6-66-4-4-66-4-4-66-1-1-66-|2x|-4444444466666666444444446666666644444444-|
D|-6-66-----66-----66-1-1-66-----------------------------------------------|

e|-------------------------------------------------------------------------|
B|-------------------------------------------------------------------------|
G|-6666666688888888--------------------------------------------------------|
D|-6666666688888888--------------------------------------------------------|
A|-3333333366666666--------------------------------------------------------|
D|-------------------------------------------------------------------------|
Bridge
e|-------------------------------------------------------------------------|
B|-------------------------------------------------------------------------|
G|--------------------------------------6666666688888888-12-12-12-12-12-12-|
D|1-66-1-1-66-11-66-1-1-66-1-1-66-11-66-6666666688888888------------9--9-(9)
A|1-66-1-1-66-11-66-1-1-66-1-1-66-11-66-4444444466666666-------------------|
D|1-66-1-1-66-11-66-1-1-66-1-1-66-11-66------------------------------------|
Solo
e|-------------------------------------------------------------------------|
B|-------------------------------------------------------------------------|
G|-------------------------------------------------------------------------|
D|-------------------------------------------------------------------------|
A|5-5-5-5-5-5-5-3-1-5-5-5-5--5-5-5-5-5-5-5-6-8-5h6-5---6-6-6-6-6-6-6-6-6p5-|
D|-------------------------------------------------------------------------|

e|-------------------------------------------------------------------------|
B|-------------------------------------------------------------------------|
G|-------------------------------------------------------------------------|
D|-------------------------------------------------------------------------|
A|6\8-6p5---10-10b---------------------------------------------------------|
D|-------------------------------------------------------------------------|
Final Chorus
e|-------------------------------------------------------------------------|
B|-------------------------------------------------------------------------|
G|------8-8----8-8----------------8888888810-10-10-10-10-10-10-1088888888--|
D|-8-88-8-8-88-8-8-88-3-3-88------8888888810-10-10-10-10-10-10-1088888888--|
A|-8-88-6-6-88-6-6-88-3-3-88-|2x|-66666666-8--8--8--8--8--8--8--866666666--|
D|-8-88-----88-----88-3-3-88-----------------------------------------------|

e|-------------------------------------------------------------------------|
B|10-10-10-10-10-10-10-10888888888888888810-10-10-10-10-10-10-10-----------|
G|10-10-10-10-10-10-10-108888888888888888-8--8--8--8--8--8--8--8-----------|
D|-8--8--8--8--8--8--8--86666666555555555-8--8--8--8--8--8--8--8-----------|
A|-------------------------------------------------------------------------|
D|-------------------------------------------------------------------------|
Ending
e|-------------------------------------------------------------------------|
B|-------------------------------------------------------------------------|
G|------8-8----8-8---------------------------------------------------------|
D|-8-88-8-8-88-8-8-88-3-3-88-----------------------------------------------|
A|-8-88-6-6-88-6-6-88-3-3-88-|4x|------------------------------------------|
D|-8-88-----88-----88-3-3-88-----------------------------------------------|

Order:
Intro
Verse
Chorus
Verse
Bridge
Chorus
Main Riff
Solo
Final Chorus
Ending

| /  slide up
| \  slide down
| h  hammer-on
| p  pull-off
| ~  vibrato
| +  harmonic
| x  Mute note
============================================================================
            
Submit corrections


        High School Never Ends lessons Hard to play? Try these video lessons and learn fast High School Never Ends lessons
        
↑ Back to top | Tablatures and chords for acoustic guitar and electric guitar, ukulele, drums are parodies/interpretations of the original songs. You may use it for private study, scholarship, research or language learning purposes only